Oops, an error
Loading. Please wait.

La Femme Dargent bass

version 2
version 2

Whole song

  • Changed slide down at the end of Riff 2 to E strin... Show more
by Air
175 views 15 this week
no commentswrite comment
1 2 3 4 5
1 last vote to show rating
add to favorites
×
Save as Personal and add changes to this tab that will be seen only by you. Learn more ›
×
You can save this tab as Personal to edit and correct it or add notes. All changes will be seen only by you. Learn more »
launch autoscroll
font size
0
reset
guitar tuner
edit
Autoscroll
slow
fast
+/-
esc
set tempo
stop
Author
Difficulty
About this tab version
Changed slide down at the end of Riff 2 to E string so it transitions easily back into the main riff. Was this info helpful? Yes No
-------------------------------------------------------------------------------
                             La Femme D'Argent - Air
-------------------------------------------------------------------------------

All credit to user xxxTwisteDxxx at 911Tabs

Main Riff x2
G|---------------------------------------|----------------------------------------|
D|-----7-9~-7h9p7---7-9------------------|------7-9~-7h9p7---7-9------------------|
A|---9------------9-----9-9-7-5-7br7-----|----9------------9-----9-97-5-7br7------|
E|7~---------------------------------5-5~|7-7---------------------------------5-5~|

Riff 1
G|--------------------------------------|------------------------------------------|
D|9-9---7-9~~~-------------------------7|9-9---7--9~~~-----------------------------|
A|----9---------------------------------|----9-------------------------------------|
E|--------------------------------------|------------------------------------------|

Main Riff x2
G|---------------------------------------|----------------------------------------|
D|-----7-9~-7h9p7---7-9------------------|------7-9~-7h9p7---7-9------------------|
A|---9------------9-----9-9-7-5-7br7-----|----9------------9-----9-97-5-7br7------|
E|7~---------------------------------5-5~|7-7---------------------------------5-5~|

Riff 1
G|--------------------------------------|------------------------------------------|
D|9-9---7-9~~~-------------------------7|9-9---7--9~~~-----------------------------|
A|----9---------------------------------|----9-------------------------------------|
E|--------------------------------------|------------------------------------------|

Main Riff x2
G|---------------------------------------|----------------------------------------|
D|-----7-9~-7h9p7---7-9------------------|------7-9~-7h9p7---7-9------------------|
A|---9------------9-----9-9-7-5-7br7-----|----9------------9-----9-97-5-7br7------|
E|7~---------------------------------5-5~|7-7---------------------------------5-5~|

Riff 2
G|--------------------------------------|------------------------------------------|
D|9-9---7-9~~~-------------------------7|9-9---7-9---------------------------------|
A|----9---------------------------------|----9-------------------------------------|
E|--------------------------------------|---------------------------------------19/|

Main Riff x2
G|---------------------------------------|----------------------------------------|
D|-----7-9~-7h9p7---7-9------------------|------7-9~-7h9p7---7-9------------------|
A|---9------------9-----9-9-7-5-7br7-----|----9------------9-----9-97-5-7br7------|
E|7~---------------------------------5-5~|7-7---------------------------------5-5~|

Riff 2
G|--------------------------------------|------------------------------------------|
D|9-9---7-9~~~-------------------------7|9-9---7-9---------------------------------|
A|----9---------------------------------|----9-------------------------------------|
E|--------------------------------------|---------------------------------------19/|

Main Riff x2
G|---------------------------------------|----------------------------------------|
D|-----7-9~-7h9p7---7-9------------------|------7-9~-7h9p7---7-9------------------|
A|---9------------9-----9-9-7-5-7br7-----|----9------------9-----9-97-5-7br7------|
E|7~---------------------------------5-5~|7-7---------------------------------5-5~|

Riff 2
G|--------------------------------------|------------------------------------------|
D|9-9---7-9~~~-------------------------7|9-9---7-9---------------------------------|
A|----9---------------------------------|----9-------------------------------------|
E|--------------------------------------|---------------------------------------19/|

Main Riff x2
G|---------------------------------------|----------------------------------------|
D|-----7-9~-7h9p7---7-9------------------|------7-9~-7h9p7---7-9------------------|
A|---9------------9-----9-9-7-5-7br7-----|----9------------9-----9-97-5-7br7------|
E|7~---------------------------------5-5~|7-7---------------------------------5-5~|

Riff 2
G|--------------------------------------|------------------------------------------|
D|9-9---7-9~~~-------------------------7|9-9---7-9---------------------------------|
A|----9---------------------------------|----9-------------------------------------|
E|--------------------------------------|---------------------------------------19/|

Interlude approx 4:00
G|--------------------------------------|------------------------------------------|
D|--------------------------------------|------------------------------------------|
A|------------------------------------0-|------------------------------------------|
E|7~~~------------------------------2---|7~~---------------------------------------|

                                            approx 4:19
G|--------------------------------------|------------------------------------------|
D|--------------------------------------|---------------12-14-14b-14-12----12------|
A|------0------------5-7b8r7~--7b8r7-5--|------------14-----------------14----14-12|
E|7-7-2---7~~-------7-------------------|7~~---------------------------------------|

G|---------14-16-14h16p14----14-16~--|---------------------------|
D|------16----------------16---------|--16-16-14-12-14-14--------|
A|14-14------------------------------|-------------------12-12-12|
E|-----------------------------------|---------------------------|

approx 4:30
G|--------------------------------------------------------------------------------|
D|-------------------------------12-14-14b-14p12----14p12--12-----12--------------|
A|12-14-14----12-14~~---------14----------------14-------14----14----14~~---------|
E|---------14---------------------------------------------------------------------|

approx 4:40
G|-------------------------------------------------------------|
D|9p7----------------------7-9~-7h9p7---7-9--------------------|
A|----9-7-5~-975---------9------------9-----9-97-5-7br7--------|
E|---------------7-5-7-7---------------------------------5-55-5|

Riff 3 approx 4:49 x lots
G|------------|
D|------------|
A|------------|
E|7-77-77--777|

Riff 4 approx 5:34
G|----------------------|
D|----------------------|
A|----5-7-7b-7p5---5----|
E|7-7------------7---7-5|

Main Riff repeat to fade
G|---------------------------------------|----------------------------------------|
D|-----7-9~-7h9p7---7-9------------------|------7-9~-7h9p7---7-9------------------|
A|---9------------9-----9-9-7-5-7br7-----|----9------------9-----9-97-5-7br7------|
E|7~---------------------------------5-5~|7-7---------------------------------5-5~|

| /  slide up
| \ slide down
| h  hammer-on
| p  pull-off
| ~  hold note

            
            
Suggest correction
Creating personal tab
Creating personal tab
You can edit any tab online and save it as your Personal.

You can edit, replace or remove any tab part or add personal notes – all changes will be seen only by you.

Personal tabs can be accessed anytime from any device, even offline.
Learn more »
Give kudos to tab author, rate the tab!
1 2 3 4 5
comments
print report bad tab
guest
You may want to rate the tab now too:
select rating
Wanna post a correction for this tab? Suggest correction