Oops, an error
Loading. Please wait.

Le Soleil Est Pres De Moi Bass Tab

by Air
834 views 1 this week
1 commentread comment
1 2 3 4 5
please rate
add to favorites
launch autoscroll
font size
0
reset
guitar tuner
Tab Pro tools
  • play this tab
  • loop segment
  • change instrument
  • show fretboard
  • metronome
×
Best way to learn
"Le Soleil Est Pres De Moi"
Autoscroll
slow
fast
+/-
esc
set tempo
stop
Contributor
Song: Le Soleil est Pres de Moi
Artist: Air
Album: Premiers Symptomes
Composers: Nicolas Godin and Jean-Benoît Dunckel
Tabbed by: Kris Pender


Riff 1a (Intro)

G|-------------------------------------|
D|-------------------------------------|
A|-2---------------------2-------------|
E|-------2----0----2-2-------2----0----|

Riff 1b (e.g. 1:11-1:38)

G|--------------------------------------------|
D|--------------------------------------------|
A|-2-----------------------2------------------|
E|-------2-2---0----2-2--------2-2---0---2-2--|

Riff 2 (0:14+)

G|---------------------------|
D|---------------------------|
A|------------------------6--|
E|--0---0-0--0-0--0-0--------|


Riff 3 (0:42+)

G|---------------------------------------------------------|
D|---------------------------------------------------------|
A|-2---2-2-------------------2---2-2-----------------------|
E|-----------5---3---3-3---3-----------5---3---3-3---3-----|

Riff 4 (2:39+)

G|--------------------------|
D|--------------------------|
A|--------------------------|
E|-2---2-2---2-3---3-3---3--|

Riff 4 Fill (3:07-3:14)

G|--------------------------|
D|--------------------------|
A|-3-------------------2----|
E|-------------5---0--------|


Progression:

Riff 1a
Riff 2
Riff 3
Riff 1b
Riff 2
Riff 3
Riff 4 and Fill
Riff 3
Riff 1b
comments
We did not receive enough feedback on this tab! Please rate:
print report bad tab
1 2 3 4 5
1 comment total.
0 reply
salmon philippe wrote on April 11 2010, 07:57 am

your tabs are ok, but I guess it would be better to have the complete tune, you only give a part of the song

I want to post or [tab]
guest
You may want to rate the tab now too:
select rating
Please do not post tabs as comments. Select "correction" instead!