Oops, an error
Loading. Please wait.

Les Professionnels Bass Tab

by Air
594 views 1 this week
no commentswrite comment
1 2 3 4 5
please rate
add to favorites
launch autoscroll
font size
0
reset
guitar tuner
Tab Pro tools
  • play this tab
  • loop segment
  • change instrument
  • show fretboard
  • metronome
×
Best way to learn
"Les Professionnels"
Autoscroll
slow
fast
+/-
esc
set tempo
stop
Contributor
Song: Les Professionels
Artist: Air
Album: Premiers Symptomes
Composers: Nicolas Godin and Jean-Benoît Dunckel
Tabbed by: Kris Pender

Couldn’t find this tab anywhere. This is my first bass tab, but a pretty easy song. 
On the whole this is a great album for bass.

Intro - Riff 1

G|--------------------------------------------------|
D|--------------------------------------------------|
A|-3---3-1-1-----6--5-----3---3-1-1-----------------|
E|------------------------------------------3--\----|

Riff 2

G|----------3-5-------------|
D|-----3-5-------3-5--------|
A|-3------------------------|
E|--------------------------|


Riff 3

G|----------3-5-----------------------------|
D|-----3-5--------3-5-----------------------|
A|-3-----------------------1--(1)-3-3-------|
E|--------------------------------- ----3-\-|

Progression:

Riff 1 - 0:30-0:50
Riff 2 - 0:50-2:32
Riff 1 - 2:32-3:12
Riff 3 - 3:20+
comments
We did not receive enough feedback on this tab! Please rate:
print report bad tab
1 2 3 4 5
I want to post or [tab]
guest
You may want to rate the tab now too:
select rating
Please do not post tabs as comments. Select "correction" instead!