Oops, an error
Loading. Please wait.

Modular Mix Bass Tab

by Air
460 views 1 this week
no commentswrite comment
1 2 3 4 5
2 more votes to show rating
add to favorites
launch autoscroll
font size
0
reset
guitar tuner
Autoscroll
slow
fast
+/-
esc
set tempo
stop
Help us to improve Ultimate-Guitar.com Take our survey!
×
Author
Song: Modular Mix
Artist: Air
Album: Premiers Symptomes
Composers: Nicolas Godin and Jean-Benoît Dunckel
Tabbed by: Kris Pender


Riff 1

G|-------------------------------|
D|----7---7----------------------|
A|------------5-5h6h7------------|
E|--5----------------------------|

Riff 2

G|-----------------------------|
D|-----------------------------|
A|-------3--5------------------|
E|--3-3--------5-5--5--4-------|
Suggest correction
Give kudos to tab author, rate the tab!
1 2 3 4 5
comments
print report bad tab
guest
You may want to rate the tab now too:
select rating
Wanna post a correction for this tab? Suggest correction