Oops, an error
Loading. Please wait.

Sexy Boy Bass

version 1
version 1

Whole song

Interactive

by Air
9,449 views 18 this week
no commentswrite comment
1 2 3 4 5
x 6
add to favorites
×
Save as Personal and add changes to this tab that will be seen only by you. Learn more ›
×
You can save this tab as Personal to edit and correct it or add notes. All changes will be seen only by you. Learn more »
save as personal
new!
launch autoscroll
font size
0
reset
guitar tuner
backing track
0:00
0:00
Autoscroll
slow
fast
+/-
esc
set tempo
stop
Author
Tuning
E A D G
Artist: Air
Song:Sexy Boy
Tabbed By Fazza
/ =slide
P =pull off
H =hammer on


  Main Part (Chorus if you want)
G|-----7-------5--7-----7-----5--7-----7-----5--7----7------5--7--|
D|----------------------------------------------------------------|
A|--5-----5-5--------5----5-5-------3----3-3------3-----3-3-------|
E|----------------------------------------------------------------|

G|-----7-------5--7-----7-----5--7----10------9-10----10-----9-10-|
D|----------------------------------------------------------------|
A|--5-----5-5--------5----5-5-------8----0-8-8------8---0-8-8-----|
E|----------------------------------------------------------------|

  The bridge...
Chorus x1
G|--------------------------------|
D|----4-5-----4-5---4-5-----4-5---|
A|-3------3-3-----3-----3-3-------|
E|--------------------------------|

G|--------------------------------|
D|----4-5-----4-5---4-5-----4-5---|
A|--------------------------------|
E|--3-----3-3-----3-----3-3-------|

G|--------------------------------|
D|----3-5-----3-5---3-5-----3-5---|
A|-1------1-1-----1-----1-1-------|
E|--------------------------------|

G|--------------------------------|
D|----2-3-----2-3---2-3-----2-3---|
A|--------------------------------|
E|-1------1-1-----1-----1-1-------|

Repeat...etc...
Suggest correction
comments
print report bad tab
guest
You may want to rate the tab now too:
select rating
Wanna post a correction for this tab? Suggest correction