Oops, an error
Loading. Please wait.

Tori No Uta Tab

by Air
11,012 views 24 this week
no commentswrite comment
1 2 3 4 5
accurate
x 3
add to favorites
launch autoscroll
font size
0
reset
how to read this tab
guitar tuner
Autoscroll
slow
fast
+/-
esc
set tempo
stop
Help us to improve Ultimate-Guitar.com Take our survey!
×
Difficulty
novice
-----------------------------------------|
-----------------------------------------|

	Tori no UTA (AirTV)

	Karboggy Version
      	       2007

-----------------------------------------|
-----------------------------------------|


PART 1
PART 2
PART 1
PART 3


-----------------------------------------
PART 1:

1a)
2 )

1a)
3a)

1b)
2 )

1a)
3b)

1 ) B - C# - D - A - F# - E - F#
2 ) E - F# - A - D - C# - D - F#
3 ) E - F# - A - F# - A - D - C#
   C# - B - F#

1a)
E|-------5-2----2-0-2------------|
B|-0-2-3-------------------------|
G|-------------------------------|
D|-------------------------------|
A|-------------------------------|
E|-------------------------------|

2 )
E|-0-2-5-------------------------|
B|-------3-2-(3)-(2)-------------|
G|------------------6-4----------|
D|-----------------------4-------|
A|-------------------------------|
E|-------------------------------|

3a)
E|-------------10-9-7-------------7-9--|
B|-5-7-10-7-10--------7--5-7---10-7-10-|
G|-------------------------7---7-------|
D|-------------------------------------|
A|-------------------------------------|
E|-------------------------------------|

1b )
E|-2-2-0-2-----------------------|
B|-------------------------------|
G|-------------------------------|
D|-------------------------------|
A|-------------------------------|
E|-------------------------------|

3b)
E|-------------10-9----7----7--9-----7---|
B|-5-7-10-7-10---------7----7--10----7---|
G|---------------------------------------|
D|---------------------------------------|
A|---------------------------------------|
E|---------------------------------------|

-----------------------------------------
00:45
PART 2:

4a)
4b)
4c)
5)


4a)
E|-4-4--4--4-4-----4-6-7-6-4-------------|
B|-------------7-7-----------------------|
G|----------------------------8-8----6-4-|
D|---------------------------------------|
A|---------------------------------------|
E|---------------------------------------|

4b)
E|-4-4--4--4-4-------------4---6--7------|
B|-------------7-7---4--7--4------9------|
G|--------------------------------8------|
D|---------------------------------------|
A|---------------------------------------|
E|---------------------------------------|

4a)
E|-4-4--4--4-4-----4-6-7-6-4-------------|
B|-------------7-7---------------------0-|
G|----------------------------8-8----6---|
D|---------------------------------------|
A|---------------------------------------|
E|---------------------------------------|

5 )
E|---------------------------4-7-6-4-6-------|
B|-4--4---4----4-4--0-7-4-7--4-9-------9---7-|
G|-------------------------------------------|
D|-------------------------------------------|
A|-------------------------------------------|
E|-------------------------------------------|


6a)
6b)
6a)
6c)


6a)
E|---------------------------------------|
B|-6-6-6-4-6---6-7-9-4-------------4-----|
G|---------------------5-5-----5-6-------|
D|---------------------------------------|
A|---------------------------------------|
E|---------------------------------------|

6b)
E|----------------------------------4-4--|
B|-6-6-6---6--------4-2---4--4-2-4-------|
G|---------------------------------------|
D|-------8-------------------------------|
A|---------------------------------------|
E|---------------------------------------|

6c)
E|--------------------------------------------------|
B|-6-6-6---6--(16-16-16-14-16)--7-5-7-7-5-7--9-9----|
G|--------------------------------------------------|
D|-------8------------------------------------------|
A|--------------------------------------------------|
E|--------------------------------------------------|


-----------------------------------------
PART 1

 (...)

-----------------------------------------
02:40
PART 3:


E|-----------17-14--14-12-14--12-14-17----|
B|-12--14-15------------------------------|
G|----------------------------------------|
D|----------------------------------------|
A|----------------------------------------|
E|----------------------------------------|

E|---------------------------------------|
B|-15-14--15-14--------------------------|
G|---------------------------------------|
D|--------------16-----------------------|
A|---------------------------------------|
E|---------------------------------------|

E|-----------17-14-14-12-14---12-14-17-14-17-|
B|-12--14-15----12---------------------------|
G|-------------------------------------------|
D|-------------------------------------------|
A|-------------------------------------------|
E|-------------------------------------------|

E|-21-19---------------------------------|
B|-------19-15-14-12---------------------|
G|-------------------11-7-6-4------------|
D|----------------------------4-0--------|
A|--------------------------------4-2-2--|
E|-----------------------------------22--|
Suggest correction
Give kudos to tab author, rate the tab!
1 2 3 4 5
comments
print report bad tab
guest
You may want to rate the tab now too:
select rating
Please do not post tabs as comments. Select "correction" instead!