Oops, an error
Loading. Please wait.

All Out Of Love Tab

version 1
version 1

Whole song

Interactive

37,331 views 39 this week
no commentswrite comment
1 2 3 4 5
x 5
add to favorites
launch autoscroll
font size
0
reset
how to read this tab
guitar tuner
Autoscroll
slow
fast
+/-
esc
set tempo
stop
Author
All out of love.
Air supply.
Tabbed by: Pham Hong Y (I'm from Vietnam).
Email: handsomehy1@yahoo.com

  I really like the intro of this song. I think this is a good tab and
 I hope this is a gift for all who love this song although I don't
 like Air Supply much. But try it and have fun!!!
  If you have any comments or something to share, contact me.

  [Intro]
e|-----------0-------------|
B|-------------------1-----|
G|--------0-------0-----0--|
D|-----2-------------------|
A|--3----------------------|
E|-------------------------|

e|----------3-------------|-------------------------|-----------------------|
B|-3-----3-------3--------|-1-----1--------1--------|----------1--------0---|
G|----0-------------0-----|-------------------------|-2---------------------|
D|------------------------|----3-----3--------3-----|----3-----------3------|
A|-2-------------------2--|-0-----------0-----------|-------3---------------|
E|------------------------|----------------------3--|-1-----------3--------3|

                                                   [Verse]
e|------------------------|-----------------------||------------------------|
B|---------------------1--|-----------------------||-----------1------------|
G|-------0--------0-------|--------0--------------||--------2-------0-------|
D|----2--------2----------|-----2--------2--------||-----3---------------3--|
A|-3----------------------|--3--------------------||--3---------------------|
E|----------3-------------|-----------3-----------||------------------------|
                                                      I'm lying alone ....

e|------------------------|-----------------------|-------------------------|
B|--------1--3---------1--|----------------1------|--------1--3----1-----1--|
G|-----0----------0-------|--------2--------------|-----0-------------0-----|
D|------------------------|-----3-----3-----------|-------------------------|
A|--3---------------------|--3--------------------|--3----------------------|
E|------------------------|-----------------------|-------------------------|
                           think  of  you  til  it  hurts

e|-------------------------|-----------3------------|-------------------------|
B|-----------1----------1--|--------3----------3----|--------1-------1--------|
G|--------2-------0--2-----|-----0----------0-------|-------------------------|
D|-----3-------------------|------------------------|-----3-----3-------3-----|
A|--3----------------------|--2---------------------|--0----------------------|
E|-------------------------|------------------------|----------------------0--|
I know you're hurt too but ...

e|--------------------------|-------------------------|-----------------------|
B|--------1-----------0-----|--------1----------1-----|--------1--3----1-----1|
G|--------------------------|----------------2--------|-----0-------------0---|
D|-----3-----3-----3-----3--|-----3-----3----------3--|-----------------------|
A|--------------------------|--3----------------------|--3--------------------|
E|--1-----------3-----------|-------------------------|-----------------------|
                            I wish I could carry....

e|-------------------------|-------------------------|------------------------|
B|--------1--3----1-----1--|--------1--3----1-----1--|--------1--3----1-----1-|
G|-------------------------|-----0-------------0-----|------------------------|
D|-----3-------------3-----|-------------------------|-----3-------------3----|
A|--3----------------------|--3----------------------|--3---------------------|
E|-------------------------|-------------------------|------------------------|

e|-----------3-------------|-----------1-------------|----------0-------------|
B|--------3-------3-----3--|--------1-------1--------|-------1-------1-----1--|
G|-----0-------------0-----|-------------------------|------------------------|
D|-------------------------|-----3-------------3-----|----3-------------3-----|
A|--2----------------------|--0----------------------|------------------------|
E|-------------------------|----------------------0--|-1----------------------|

                            [Chorus]
e|-----------0--------------|-----------0-------------|----------3------------|
B|--------1--------0-----0--|--------1-------1--------|-------3--------3-----3|
G|--------------------------|-----0-------------0-----|----0--------------0---|
D|-----3--------------3-----|-------------------------|-----------------------|
A|--------------------------|--3-------------------3--|-2-----------2---------|
E|--3-----------3-----------|-------------------------|-----------------------|
                           I'm all out of love...

e|-------------------------|--------------------------|-----------3----0------|
B|--------1-------1--------|--------1-----------1-----|--------1----------1---|
G|-------------------------|--------------------------|-----0----------------0|
D|-----3-----3-------3-----|-----3-----3-----3-----3--|-----------------------|
A|--0----------------------|--------------------------|--3--------------------|
E|----------------------3--|--1-----------3-----------|-----------------------|
I know you were                                      I'm all out of love

e|-----------3-------------|-------------------------|-----------------------|
B|--------3-------3--------|--------1-------1--------|-------1-----------1---|
G|-----0-------------0-----|-------------------------|-----------------------|
D|-------------------------|-----3-----3-------3-----|----3-----3-----3-----3|
A|--2-------------------2--|--0----------------------|-----------------------|
E|-------------------------|----------------------3--|-1-----------3---------|
                          I can't be too late

e|-----------------3-------|-------------------|
B|--------1--3----------1--|-------------------|
G|-----0--------0----------|-------------------|
D|-------------------------|-------------------|
A|--3----------------------|--3----------------|
E|-------------------------|-------------------|

[Verse]
e|------------------------|
B|-----------1------------|
G|--------2-------0-------|
D|-----3---------------3--|
A|--3---------------------|
E|------------------------|

                                                      I'm lying alone ....
e|------------------------|-----------------------|-------------------------|
B|--------1--3---------1--|----------------1------|--------1--3----1-----1--|
G|-----0----------0-------|--------2--------------|-----0-------------0-----|
D|------------------------|-----3-----3-----------|-------------------------|
A|--3---------------------|--3--------------------|--3----------------------|
E|------------------------|-----------------------|-------------------------|
                           think  of  you  til  it  hurts

e|-------------------------|-----------3------------|-------------------------|
B|-----------1----------1--|--------3----------3----|--------1-------1--------|
G|--------2-------0--2-----|-----0----------0-------|-------------------------|
D|-----3-------------------|------------------------|-----3-----3-------3-----|
A|--3----------------------|--2---------------------|--0----------------------|
E|-------------------------|------------------------|----------------------0--|
I know you're hurt too but ...

e|--------------------------|-------------------------|-----------------------|
B|--------1-----------0-----|--------1----------1-----|--------1--3----1-----1|
G|--------------------------|----------------2--------|-----0-------------0---|
D|-----3-----3-----3-----3--|-----3-----3----------3--|-----------------------|
A|--------------------------|--3----------------------|--3--------------------|
E|--1-----------3-----------|-------------------------|-----------------------|
                            I wish I could carry....

e|-------------------------|-------------------------|------------------------|
B|--------1--3----1-----1--|--------1--3----1-----1--|--------1--3----1-----1-|
G|-------------------------|-----0-------------0-----|------------------------|
D|-----3-------------3-----|-------------------------|-----3-------------3----|
A|--3----------------------|--3----------------------|--3---------------------|
E|-------------------------|-------------------------|------------------------|

e|-----------3-------------|-----------1-------------|----------0-------------|
B|--------3-------3-----3--|--------1-------1--------|-------1-------1-----1--|
G|-----0-------------0-----|-------------------------|------------------------|
D|-------------------------|-----3-------------3-----|----3-------------3-----|
A|--2----------------------|--0----------------------|------------------------|
E|-------------------------|----------------------0--|-1----------------------|

 [Bridge]
e|--------------------------|--------------------------|--------------------|
B|-----------1-----------1--|--------------------------|-----------1--------|
G|--------0-----------0-----|--------------------------|--------2-----------|
D|-----2--------0--2--------|-----0--2-----------0-----|-----2---------2----|
A|--3-----------------------|--3--------3--2--3-----2--|--0---------------0-|
E|--------------------------|--------------------------|--------------------|

e|-----------------------|-------------------------|------------------------|
B|----------0------------|-----------1--1-----1----|----------1-------------|
G|-------0----------0----|--------2-----2-----0----|-------2-------2-----2--|
D|----2----------2-------|-----3--------3-----2----|----3-------------3-----|
A|-----------------------|-------------------------|------------------------|
E|-----------------------|--1-----------1-----0----|------------------------|

e|-------------------------|------------------------|-----------------------|
B|-----------1-------------|-----------0------------|-----------1--------1--|
G|--------2-------2--------|--------0---------0-----|--------2-----2-----0--|
D|-----2-------------2-----|-----2---------------2--|-----3--------3-----2--|
A|--0-------------------0--|------------------------|-----------------------|
E|-------------------------|--0---------------------|--1-----------1-----0--|

e|------------------------|--0---------------------|-------------0----------|
B|--1-------1----------1--|-------3----------------|--------3----------3----|
G|--2------------2--------|-------4----0-----0-----|--5---------------------|
D|--3----3----------3-----|------------------7-----|------------------------|
A|------------------------|------------------------|------------------------|
E|------------------------|------------------------|------------------------|

[Chorus]
e|-----------0-------------|----------3------------|
B|--------1-------1--------|-------3--------3-----3|
G|-----0-------------0-----|----0--------------0---|
D|-------------------------|-----------------------|
A|--3-------------------3--|-2-----------2---------|
E|-------------------------|-----------------------|
                           I'm all out of love...

e|-------------------------|--------------------------|-----------3----0------|
B|--------1-------1--------|--------1-----------1-----|--------1----------1---|
G|-------------------------|--------------------------|-----0----------------0|
D|-----3-----3-------3-----|-----3-----3-----3-----3--|-----------------------|
A|--0----------------------|--------------------------|--3--------------------|
E|----------------------3--|--1-----------3-----------|-----------------------|
I know you were                                      I'm all out of love

e|-----------3-------------|-------------------------|-----------------------|
B|--------3-------3--------|--------1-------1--------|-------1-----------1---|
G|-----0-------------0-----|-------------------------|-----------------------|
D|-------------------------|-----3-----3-------3-----|----3-----3-----3-----3|
A|--2-------------------2--|--0----------------------|-----------------------|
E|-------------------------|----------------------3--|-1-----------3---------|
                          I can't be too late

e|-----------------3-------|-------------------|
B|--------1--3----------1--|-------------------|
G|-----0--------0----------|-------------------|
D|-------------------------|-------------------|
A|--3----------------------|--3----------------|
E|-------------------------|-------------------|
Suggest correction
comments
print report bad tab
guest
You may want to rate the tab now too:
select rating
Wanna post a correction for this tab? Suggest correction