Oops, an error
Loading. Please wait.

All Out Of Love Tab

version 2
version 2

Intro

Solo

Whole song

Interactive

144,430 views 237 this week
5 commentsread comments
1 2 3 4 5
excellent!
x 24
add to favorites
launch autoscroll
font size
0
reset
how to read this tab
guitar tuner
Tab Pro tools
  • play this tab
  • loop segment
  • change instrument
  • show fretboard
  • metronome
×
Best way to learn
"All Out Of Love"
Autoscroll
slow
fast
+/-
esc
set tempo
stop
ALL OUT OF LOVE
By: Air Supply

Guitar Trancription by: §mo'',)tH (,''rImInAL

    G/B    F/A     F/Bb

E    3      1       1
B    3      1       1
G    0      2       2
D    0      3       3
A    2      0       1
D    X      X       X


Intro: C-G/B-F/A-F-G

    C		      G/B	         F/A             F     G
  E-------0------------------3-----------------1---------------------|
  B-----------1------------------2----------------1---------1-----2--|
  G-----0-------0----------0-------0---------2------2------2-----4---|
  D----2----------2------0-----------0-----3----------3---3-----5----|
  A--3-----------------2-----------------0---------------3-----5-----|
  D------------------------------------------------------------------|
       Repeat this 2X

    C
  E-------0----------------0----------|
  B-----------1----------------1------|
  G-----0-------0--------0-------0----|
  D----2----------2----2-----------2--|
  A--3---------------3----------------|
  D-----------------------------------|


	I
     F
I'm lying alone
         C
With my head on the phone
F                        C
Thinking of you till it hurts
    F
I know you hurt too
         G/B
But what else can we do
  F/Bb              F   G
Tormented and torn apart

	II
    F
I wish I could carry
       C
Your smile in my heart
F                               C
The times when my life seems so low
       F                       G/B
People make me believe what tomorrow could bring
       F/Bb                 F
When today doesn't really know.
          G
Doesn't really know

REFRAIN
         C
    I'm all out of love
           G/B
    I'm so lost without you
            F/A
    I know you were right
           F     G
    Believing for so long
         C
    I'm all out love
           G/B
    What am I without you?
           F/A
    I can't be too late
           F     G            C
    (To say that)
    (I know     )  I was so wrong


	III
        F
I want you to comeback
      C
And carry me home
F                             C
Away from these long lonely nights
F
I'm reaching for you
          G/B
Are you feeling it too
 F/Bb                        F   G
Does the feeling seem oh so right

	IV
      F
And what would you say
       C
If I call on you now
F                         C
And say that I can't hold on
F
There's no easy way
         G/B
It gets harder each day
        F/Bb               F
Please love me or I'll be gone
          G
I'll be gone

(REPEAT REFRAIN)


Bridge/Interlude(whatever, i don't know d ryt term!)
                 G/B-Am     Em               F-Em
(Back up vocals) Ah--, What are you thinking of
                 Dm    Em              Am
  		 What are you thinking of
                 Am                    F-Em
(Back up vocals) What are you thinking of
        	 Dm                     F-G
		 What are you thinking of---

(REPEAT REFRAIN 3x)

Note: -- Use the plucking in intro for the chorus
      -- You can just make some plucking of ur own in the stanza parts
	 or u can make use of the following simple improvise plucking

	* For every Chords except the first last  two chords of the
        first and third stanza (F and G)
                    #
  		E----------#-----------|
  		B---#------#----#------|
  		G--------#--------#----|
  		D---#--#------------#--|
  		A---#------------------|
  		D----------------------|

	* For the last two chords of the First and third stanza

		      F    G
         E--------------------|
         B--------1----3------|
          G-------2----4------|
          D------3----5-------|
          A-----3----5--------|
          D-------------------|

        * Im not just sure about the Starting chord F if u have any idea on
	 what it should be please inform me "dren003@yahoo.com
comments
print report bad tab
5 comments total. Showing first comments.
0 reply
non conformist1 wrote on November 30 2006, 03:41 pm

why does it have to be drop d then

+2 reply
Trowa21 wrote on December 22 2007, 07:25 pm

nice tab some notes are wrong in the intro but easily fixable =)

0 reply
phantomkid wrote on January 25 2010, 03:04 am

Agreed with Trowa21. This should be the right one.


E--------3-----------------|
B-----------3--------------|
G------0------0------------|
D----0----------0----------|
A--2-----------------------|
E--------------------------|

I want to post or [tab]
guest
You may want to rate the tab now too:
select rating
Please do not post tabs as comments. Select "correction" instead!