Oops, an error
Loading. Please wait.

Here I Am chords

version 3
version 3

Whole song

Interactive

580 views 9 this week
no commentswrite comment
1 2 3 4 5
2 more votes to show rating
add to favorites
×
Save as Personal and add changes to this tab that will be seen only by you. Learn more ›
×
You can save this tab as Personal to edit and correct it or add notes. All changes will be seen only by you. Learn more »
launch autoscroll
font size
0
reset
transpose
0
reset
simplify chords
display chords
guitar tuner
edit
Autoscroll
slow
fast
+/-
esc
set tempo
stop
Author
Strumming
There is no strumming pattern for this song yet. and get +5 IQ
[Intro]

     C        G/B         Dm    Em    F   G
e|--0------0-----------------------------------|
B|--1----1----3----0--3--1-----0---------------|
G|--0--0---------0----------2-----0--2---0-----|
D|--2--------------------0---------------------|
A|--3---------2--------------------------------|
E|-----------------------------0-----1---3-----|

    C         Em         Dm  Em  F
e|--0------0-------------1---0-------~8--------|
B|--1----1----3-----0-3----------1---~10-------|
G|--0--0----------0------------------~9--------|
D|--2--------------------0---------------------|
A|--3------------------------------------------|
E|------------0--------------0---1-------------|


[Verse 1]

       C   G/B                Am       Em
Here I am playing with those memories again
    Gdim                                Dm
And just when I thought time had set me free

Those thoughts of you keep taunting me
G        C      Em       Am        Em
Holding you, a feeling I never outgrew
  Gdim                                Dm Faug/D
Though each and every part of me has tried
 Dm                                 G
Only you can fill that space inside
    Dm                  G
So there's no sense pretending
    Dm             G
My heart it's not mending


[Chorus]

 C          Em            Dm       G
Just when I thought I was over you
    C            Am             Dm          G
And just when I thought I could stand on my own
   C            Em           Dm               E
Oh baby, those memories come crashing through
           Am       Dm   Em  F    C
And I just can't go on   without you


[Interlude]

   C         Em         Dm  Em  F
e|--0------0-------------1---0-------~8--------|
B|--1----1----3-----0-3----------1---~10-------|
G|--0--0----------0------------------~9--------|
D|--2--------------------0---------------------|
A|--3------------------------------------------|
E|------------0--------------0---1-------------|


[Verse 2]

      C         Em               Am           Em
On my own I've tried to make the best of it alone
     Gdim                              Dm Faug/D Dm
I've done everything I can to ease the pain
                               G
But only you can stop the rain
        Dm                 G
I just can't live without you
           Dm            G
I miss everything about you


[Chorus]

  C          Em            Dm      G
Just when I thought I was over you
     C           Am              Dm         G
And just when I thought I could stand on my own
    C           Em            Dm              E
Oh baby, those memories come crashing through
            Am      Dm   Em  F       Dm   Em F
And I just can't go on   without, go on   without
              Dm  Em  F     C Em Dm G
It's just no good without you
         C Em Dm G
Without you
         C Em Dm G
Without you
         C Em Dm G
Without you
         C Em Dm G (slowly fade)
Without you
Suggest correction
Creating personal tab
Creating personal tab
You can edit any tab online and save it as your Personal.

You can edit, replace or remove any tab part or add personal notes – all changes will be seen only by you.

Personal tabs can be accessed anytime from any device, even offline.
Learn more »
Give kudos to tab author, rate the tab!
1 2 3 4 5
comments
print report bad tab
guest
You may want to rate the tab now too:
select rating
Wanna post a correction for this tab? Suggest correction