Oops, an error
Loading. Please wait.

Your Fractured Life tab

version 2
version 2

Whole song

105 views 1 this week
no commentswrite comment
1 2 3 4 5
3 more votes to show rating
add to favorites
×
Save as Personal and add changes to this tab that will be seen only by you. Learn more ›
×
You can save this tab as Personal to edit and correct it or add notes. All changes will be seen only by you. Learn more »
launch autoscroll
font size
0
reset
how to read this tab
guitar tuner
edit
Autoscroll
slow
fast
+/-
esc
set tempo
stop
hey, this is an amazing song by air traffic, who really don't have enough recognition in
my opinion. I took a look at the other tab, and it works but it doesn't sound exactly
right, so heres what i think it should be :) enjoy! bear in mind this is my first time 
tabbing, sorry for any mistakes!

intro + verse 1

e|-------------------------|
B|-2-----0--3-2--2-----0---|
G|-2--2--0--2-2--2--2--0---|        x2
D|----4-------------4------|
A|-------------------------|
E|-------------------------|


alternatively it could be played with only on string, but i think it sounds better with
two, especially if it's being played acoustically.

bridge 1

e|-------12-----------12-----------10-----------10------|
B|----14----14-----14----14-----12----12-----12----12---|
G|-14-----------11-----------12-----------11------------|   x2
D|------------------------------------------------------|
A|------------------------------------------------------|
E|------------------------------------------------------|

verse 2

e|-------------------------|
B|-2-----0--3-2--2-----0---|
G|-2--2--0--2-2--2--2--0---|        x2
D|----4-------------4------|
A|-------------------------|
E|-------------------------|

bridge 2

G D C Bm

or

e|-10--10--12--12--|
B|-12--12--14--14--|
G|-12--11--14--11--|       x2
D|-----------------|
A|-----------------|
E|-----------------|

verse 3


e|-------12-----------12-----------10-----------10------|
B|----14----14-----14----14-----12----12-----12----12---|
G|-14-----------11-----------12-----------11------------|
D|------------------------------------------------------|
A|------------------------------------------------------|
E|------------------------------------------------------|

chorus

G D C Bm

or

e|-10--10--12--12--|
B|-12--12--14--14--|
G|-12--11--14--11--|       x2
D|-----------------|
A|-----------------|
E|-----------------|

outro

G D C Bm

this part is piano, but it sounds good with guitar too

            
            
Suggest correction
Creating personal tab
Creating personal tab
You can edit any tab online and save it as your Personal.

You can edit, replace or remove any tab part or add personal notes – all changes will be seen only by you.

Personal tabs can be accessed anytime from any device, even offline.
Learn more »
Give kudos to tab author, rate the tab!
1 2 3 4 5
comments
print report bad tab
guest
You may want to rate the tab now too:
select rating
Wanna post a correction for this tab? Suggest correction