Oops, an error
Loading. Please wait.

Broken Tab

28 views 6 this week
no commentswrite comment
1 2 3 4 5
2 more votes to show rating
add to favorites
launch autoscroll
font size
0
reset
how to read this tab
guitar tuner
Autoscroll
slow
fast
+/-
esc
set tempo
stop
Help us to improve Ultimate-Guitar.com Take our survey!
×
Author
Difficulty
Tuning
intermediate
E A D G B E
----------------------------------------------------------------------------------------
                                          Artist - Airbag 
                                         *****************
                                           Song - Broken
                                          ***************
                                     Album - Disconnected (2016)    
                                    *****************************
                                        Tabbed By - Ayreon77
                                       **********************
----------------------------------------------------------------------------------------
Tuning = Standard


INTRO - Acoustic
******
Am C Am C


--------------------------------------
VERSE 1
********
        Am               C
Hold me tight, and don't look away
       Am                   C
Ask me how I feel, or how I make it through the day


--------------------------------------
01:05
  Electric Guitar Picking
  Am                                  C
e|-----------------|-----------------|-----------------|-3-----|
B|-----5---5---5---|-----5---5---5---|-----3---3---3---|---3---|
G|---7---7---7---7-|---7---7---7---7-|---5---5---5---5-|-----5-|
D|-7---------------|-7---------------|-5---------------|-------|
A|-----------------|-----------------|-----------------|-------|
E|-----------------|-----------------|-----------------|-------|

  Am                        C
e|-----------------|-5-----|-----------------|-3-----|
B|-----5---5---5---|---5---|-----3---3---3---|---3---|
G|---7---7---7---7-|-----7-|---5---5---5---5-|-----5-|
D|-7---------------|-------|-5---------------|-------|
A|-----------------|-------|-----------------|-------|
E|-----------------|-------|-----------------|-------|


--------------------------------------
01:45
SMALL SOLO - Am C
***********        rb
e|--h-----------|-10-|--h-s---|-------|----|
B|-7-8---p----b-|----|-5-8\10-|--p-s--|-rb-|
G|------7-5-4---|----|--------|-7-5\4-|-7--|
D|--------------|----|--------|-------|----|
A|--------------|----|--------|-------|----|
E|--------------|----|--------|-------|----|


--------------------------------------
VERSE 2
********
    Am                          C
The distance between us, Is the closeness you want to keep

02:20
e|-------|--s------|
B|--s--8-|-8\10-10-|
G|-7\9---|---------|
D|-------|---------|
A|-------|---------|
E|-------|---------|
         Am                                C
Is there nothing more to give, Is this the end of it all

02:29
e|-15---s-------------s------|---p-----------|-------|
B|----13\12---12-13-13\15-15-|-13-12-12------|--s--8-|
G|---------------------------|----------12-9-|-7\9---|
D|---------------------------|---------------|-------|
A|---------------------------|---------------|-------|
E|---------------------------|---------------|-------|


--------------------------------------
CHORUS
*******
     F
If I had a chance to take it all back
                      C
Would you leave me anyway
e|------------------|
B|----h----s--------|
G|---5-7~~~\---5~~~-|
D|-5----------------|
A|------------------|
E|------------------|

         F
And if I told you I could change again

USE SLIDE
e|--s--|
B|-5\6-|
G|-----|
D|-----|
A|-----|
E|-----|

                             Am        G
Would you still be here with me

USE SLIDE
e|--s-------------|
B|-6\8~~~---s-----|
G|---------5\7~~~-|
D|----------------|
A|----------------|
E|----------------|

                  F
If I could change again

USE SLIDE
e|-----------|
B|--s--------|
G|-7\9-9~~~~-|
D|-----------|
A|-----------|
E|-----------|

                      Am       G                        F
Would you leave me anyway             If I could change again

USE SLIDE                s   s  s
e|--s----s----s-----s-|-8\--5\6-/-3-3----s------|--s-s--|--s--|
B|-5\6-6-\-5-6/8~~~~\-|---------------3-3\5-5-5-|-5\6/5-|-1\3-|
G|--------------------|-------------------------|-------|-----|
D|--------------------|-------------------------|-------|-----|
A|--------------------|-------------------------|-------|-----|
E|--------------------|-------------------------|-------|-----|
                  

Dm

--------------------------------------
03:43
  Electric Guitar Picking
  Am                C
e|-----------------|-----------------|-------|
B|-----5---5---5---|-----3---3---3---|-----5-|
G|---7---7---7---7-|---5---5---5---5-|---5---|
D|-7---------------|-5---------------|-7-----|
A|-----------------|-----------------|-------|
E|-----------------|-----------------|-------|

  Am                C
e|-----------------|-----------------|
B|-----5---5---5---|-----3---3---3---|
G|---7---7---7---7-|---5---5---5---5-|
D|-7---------------|-5---------------|
A|-----------------|-----------------|
E|-----------------|-----------------|



--------------------------------------
VERSE 3
********
          Am          C
There's a house, down by the sea
              Am                     C
It's where we used to live, Now it's turned to dust


--------------------------------------
04:41
SOLO - F C
*****
e|----------------------------------------|----------------------|
B|----------------------------------------|----------------------|
G|----------------------------------------|----------------------|
D|------s-------s-------s----------s---s--|--------s------s------|
A|-3~~-3\5-5~~-5\7-7~~-7\10-10~~-10\--5\7-|-7-7-7-7\10--10\--5-5-|
E|----------------------------------------|----------------------|


e|------------------------------|-------------|----------------|
B|------------------------------|-------------|----------------|
G|------------------------------|-------------|----------------|
D|------s-------s-------s-----s-|-10-9-9------|---s------------|
A|-3~~-3\5-5~~-5\7-7~~-7\10-10\-|--------10~~-|-10\12--12---10-|
E|------------------------------|-------------|----------------|


e|-------------------------------|------------------------------------------------------|
B|-------------------------------|------------------------------------------------------|
G|-------------------------------|---s--------12----12----12----12---s-------br---------|
D|------s-------s-------s--------|-12\14-14~~----14----14----14----14\12-10-12-10----10-|
A|-3~~-3\5-5~~-5\7-7~~-7\10-10~~-|------------------------------------------------12----|
E|-------------------------------|------------------------------------------------------|


e|-----------------------------------|
B|------------------------h----------|
G|---------s---12----12-12-14-14~~~~-|
D|-12-10-12\14----14-----------------|
A|-----------------------------------|
E|-----------------------------------|


--------------------------------------
CHORUS
*******
     F
If I had a chance to take it all back

  slow
e|--b-|
B|-15-|
G|----|
D|----|
A|----|
E|----|
                      C
Would you leave me anyway

e|--b-r------|------------------|
B|-12--10----|------------------|
G|--------12-|---s--------------|
D|-----------|-14\12-10-12-10~~-|
A|-----------|------------------|
E|-----------|------------------|

         F
And if I told you I could change again

e|---------------------|
B|---------------------|
G|---s---12----12~~~~~-|
D|-12\14----14---------|
A|---------------------|
E|---------------------|

                             Am        G
Would you still be here with me

e|----------slow-------------------------|
B|---p------b----15-15--brp-------b-r----|
G|-14-12-14------------14--12-14-14---12-|
D|---------------------------------------|
A|---------------------------------------|
E|---------------------------------------|

                  F
If I could change again

e|--------------------------------------|--------------------------------|
B|--------------------------------------|------------p---------p-------s-|
G|--------------b-12--b----------brbr---|---s---12-14-12-14--14-12-14~~\-|
D|---s---10-12-12----12---12-10-12---10-|-12\14--------------------------|
A|-10\12--------------------------------|--------------------------------|
E|--------------------------------------|--------------------------------|

                      Am       G
Would you leave me anyway

e|--b-rp------|
B|-15---13-15-|
G|------------|
D|------------|
A|------------|
E|------------|

                  F
If I could change again

           s      p       s
e|-12-15-15\17--17-15-17~~\-|-17-15-17-15--rbp----b--15-15--rbp----b-rp----------|
B|--------------------------|-------------15--13-15--------15--13-15---13------s-|
G|--------------------------|---------------------------------------------14~~~\-|
D|--------------------------|----------------------------------------------------|
A|--------------------------|----------------------------------------------------|
E|--------------------------|----------------------------------------------------|


e|rake---------------------|--------------------------------|
B|-----p-------------------|--------------------------------|
G|---14-12-----b--rbp------|------p----b-12--brp----------s-|
D|-12------14-12-----10-12-|-10-12-10-12----12--10-12-10~~\-|
A|-------------------------|--------------------------------|
E|-------------------------|--------------------------------|


e|-----------------------------|---------s---------|
B|--------------------13-------|-13-15-15\17-17~~~-|
G|---s---12-14--14-12----12-14-|-------------------|
D|-12\14-----------------------|-------------------|
A|-----------------------------|-------------------|
E|-----------------------------|-------------------|


e|-----------------------------------|------------------------------|
B|---h---------b---rb---h------------|------------------------------|
G|-14-16-16~~-16--16--14-16-16-------|---h---12---s-----------------|
D|-----------------------------14-14-|-12-14----14\12-10-12-10~~~~~-|
A|-----------------------------------|------------------------------|
E|-----------------------------------|------------------------------|


p   = Pull Off
h   = Hammer On
b   = Bend
rb  = Release Bend
rbp = Release Bend Pulloff
br  = Bend Release
brp = Bend Release Pulloff
/   = Slide




ENJOY............


Suggest correction
Give kudos to tab author, rate the tab!
1 2 3 4 5
comments
print report bad tab
guest
You may want to rate the tab now too:
select rating
Wanna post a correction for this tab? Suggest correction