Oops, an error
Loading. Please wait.

Feeling Less Tab

251 views 6 this week
no commentswrite comment
1 2 3 4 5
excellent!
x 7
add to favorites
launch autoscroll
font size
0
reset
how to read this tab
guitar tuner
Tab Pro tools
  • play this tab
  • loop segment
  • change instrument
  • show fretboard
  • metronome
Autoscroll
slow
fast
+/-
esc
set tempo
stop
Contributor
                                          Artist - Airbag
                                         *****************
                                        Song - Feeling Less
                                       *********************
                                          Album - Identity
                                         ******************



Play Acoustic All the way through the song


Intro - Small Ebow Solo
************************
   Am       G                  Fmaj7        Em     
e|----------s----------s-------s-----------s------------s---------------|
B|-17~~~~~~-\12~~~~~~~-\13~~~~-\17~~~~~~~~-\15~~~~~~~~~-\20~~~~~~~~~~~~-|
G|----------------------------------------------------------------------|
D|----------------------------------------------------------------------|
A|----------------------------------------------------------------------|
E|----------------------------------------------------------------------|

Verse 1
********
                                       Electric Guitar
          Am                   G       ***************
There’s a pain deep inside and I      [--7--7--7--7--7--7--7--]
                Fmaj7                 [--8--8--8--8--8--8--8--]
I can’t seem to follow you            [--9--9--9--9--9--9--9--]
   Em                                 [--9--9--9--9--9--9--9--]
To where I want to be                 [--7--7--7--7--7--7--7--]
Am                    G               [-----------------------]
  I remember when the snow fell on us
Fmaj7                                  Electric Guitar
  But the closer I get                 ***************
    Em                                [-----------------]
The more I feel like someone else     [------s----------]
                                      [--12--\--7----9--]
                                      [-----------------]
                                      [-----------------]
Electric Guitar                       [-----------------]
***************
01:00
                    Chorus
                    *******
  Em                 Fmaj7                      Am

                    How does it feel without    me
[--0------0---0----|--------0-----------0-----|--------0------------------]
[--0--0-----0---0--|------1---1-------1---1---|------1---1---3-----1------]
[--0---------------|----2-------2---2-------2-|----2-------2---2-----2----]
[--2---------------|--3-----------3-----------|--2---------------2-----2--]
[--2---------------|--------------------------|---------------------------]
[--0---------------|--------------------------|---------------------------]

  Fmaj7                      Am

 How does your life          feel
[--------0-----------0-----|--------0------------------]
[------1---1-------1---1---|------1---1---3-----1------]
[----2-------2---2-------2-|----2-------2---2-----2----]
[--3-----------3-----------|--2---------------2-----2--]
[--------------------------|---------------------------]
[--------------------------|---------------------------]

  Fmaj7                      Dsus2

 How does it feel to be      alone
[--------0-----------0-----|--------0-----------0------]
[------1---1-------1---1---|------3---3-------3---3----]
[----2-------2---2-------2-|----2-------2---2-------2--]
[--3-----------3-----------|--0-----------0------------]
[--------------------------|---------------------------]
[--------------------------|---------------------------]



01:28
Small Ebow Solo
****************
   Am       G                  Fmaj7        Em     
e|----------s----------s-------s-----------s------------s---------------|
B|-17~~~~~~-\12~~~~~~~-\13~~~~-\17~~~~~~~~-\15~~~~~~~~~-\20~~~~~~~~~~~~-|
G|----------------------------------------------------------------------|
D|----------------------------------------------------------------------|
A|----------------------------------------------------------------------|
E|----------------------------------------------------------------------|



Verse 2
********
     Am                G
It’s wearing me down inside
                 Fmaj7
And I can hardly see your face
   Em                             Electric Guitar
No silence left to steal          ***************
Am                               [-----------------]
  I’m not helpless               [------s----------]
      G                          [--12--\--7----9--]
But I think I’m getting close    [-----------------]
Fmaj7                            [-----------------]
  You can stay where you are     [-----------------]
    Em
But please  Not too far away




Chorus - Repeat picking Above
******************************


Organ
******
Acoustic Chords
****************
D C Fmaj7 Em - X5
03:22
Come in with this picking bit after the drums
  D                         C
[-------0-----------0-----|-------0-----------0-----]
[-----3---3-------3---3---|-----1---1-------1---1---]
[---2-------2---2-------2-|---0-------0---0-------2-]
[-0-----------0-----------|-2-----------2-----------]
[-------------------------|-------------------------]
[-------------------------|-------------------------]

 Fmaj7                     Em
[-------0-----------0-----|-------0-----------0------]
[-----1---1-------1---1---|-----0---0-------0---0----]
[---2-------2---2-------2-|---0-------0---0-------0--]
[-3-----------3-----------|-2-----------2------------]Play
[-------------------------|--------------------------]3
[-------------------------|--------------------------]Times


Acoustic Chords
****************
Fmaj7 Am
Fmaj7 Am
Fmaj7 D   - X2

Come in with this picking bit after the change
 Fmaj7                       Am
[--------0------------------|--------0------------------]
[------1---1---3-----1------|------1---1---3-----1------]
[----2-------2---2-----2----|----2-------2---2-----2----]
[--3---------------3-----3--|--2---------------2-----2--]
[---------------------------|---------------------------]
[---------------------------|---------------------------]

 Fmaj7                       Am
[--------0------------------|--------0------------------]
[------1---1---3-----1------|------1---1---3-----1------]
[----2-------2---2-----2----|----2-------2---2-----2----]
[--3---------------3-----3--|--2---------------2-----2--]
[---------------------------|---------------------------]
[---------------------------|---------------------------]

 Fmaj7                       Dsus2
[--------0------------------|--------0-----------0------]
[------1---1---3-----1------|------3---3-------3---3----]
[----2-------2---2-----2----|----2-------2---2-------2--]
[--3---------------3-----3--|--0-----------0------------]Play
[---------------------------|---------------------------]2
[---------------------------|---------------------------]Times

On the second Dsus2 strum it to end the song.


Enjoy.....
comments
print report bad tab
I want to post or [tab]
guest
You may want to rate the tab now too:
select rating
Please do not post tabs as comments. Select "correction" instead!