Oops, an error
Loading. Please wait.

Homesick I - Iii chords

by Airbag
235 views 9 this week
2 commentsread comments
1 2 3 4 5
x 4
add to favorites
×
Save as Personal and add changes to this tab that will be seen only by you. Learn more ›
×
You can save this tab as Personal to edit and correct it or add notes. All changes will be seen only by you. Learn more »
launch autoscroll
font size
0
reset
transpose
0
reset
display chords
guitar tuner
edit
Autoscroll
slow
fast
+/-
esc
set tempo
stop
Author
Difficulty
Strumming
There is no strumming pattern for this song yet. and get +5 IQ
------------------------------------------------------------------------------------------------------------
                                          Artist - Airbag 
                                         *****************
                                          Song - I - III
                                         ****************
                                  Album - All Rights Removed (2011)    
                                 ***********************************
                                        Tabbed By - Ayreon77
                                       **********************
------------------------------------------------------------------------------------------------------------
Tuning = Standard



INTRO
******
Am D X2


---------------------------
00:22
VERSE 1
********
     Am                      D
It's funny how, my life just falls apart. 
                Am                             D
I slept through days and nights like a perfect prince.
             Am                                     D
Then it came crashing through the walls of lies and silence in my head.
         F                    G           
And it's time to go before we came. 
      F                  G
And I know that we can't stay the same.


---------------------------
01:19
BREAK
******
Am  D  Am  D


---------------------------
01:41
VERSE 2
********
Am                                                  D
Imagine that all you know are what you were told to care about.
          Am                                D
Now after all this time you find your faith is fading.
    F                      G
But it's time to go before we came.
       F                      G             D
And it only takes a second to turn yourself.


---------------------------
02:27
SOLO 1 - EBOW
*******  *****
   F                               Em                           
e|---s-------s-------------s---s------------------------s-----------|
B|-3~\10~~~~~\8~~~~~~~~~~~~\5~~\8~~2~~~~~~~~~~~~~~~~~~~~\5~~~~~~~~~-|
G|------------------------------------------------------------------|
D|------------------------------------------------------------------|
A|------------------------------------------------------------------|
E|------------------------------------------------------------------|

   F                                    Em                   D             Am
e|--------s-------s-------------s---s-------------------------------------------------|
B|-~~~~~~~\10~~~~~\8~~~~~~~~~~~~\5~~\8~~2~~~~~~~~~~~~~~~~~~~~-s----------s------------|
G|-----------------------------------------------------------5\11~~~~~~~4\5~~~~~~~~~~-|
D|------------------------------------------------------------------------------------|
A|------------------------------------------------------------------------------------|
E|------------------------------------------------------------------------------------|


---------------------------
02:55
BREAK
******
Am D X4


---------------------------
03:40
SOLO 2 - EBOW
*******  *****
   F                               Em                           
e|---s-------s-------------s---s------------------------s-----------|
B|-3~\10~~~~~\8~~~~~~~~~~~~\5~~\8~~2~~~~~~~~~~~~~~~~~~~~\5~~~~~~~~~-|
G|------------------------------------------------------------------|
D|------------------------------------------------------------------|
A|------------------------------------------------------------------|
E|------------------------------------------------------------------|

   F                                    Em                   D             Am
e|--------s-------s-------------s---s-------------------------------------------------|
B|-~~~~~~~\10~~~~~\8~~~~~~~~~~~~\5~~\8~~2~~~~~~~~~~~~~~~~~~~~-s----------s------------|
G|-----------------------------------------------------------5\11~~~~~~~4\5~~~~~~~~~~-|
D|------------------------------------------------------------------------------------|
A|------------------------------------------------------------------------------------|
E|------------------------------------------------------------------------------------|


---------------------------
04:03
ORGAN
******
Am D X2


---------------------------
04:25
Wha Wha
Am D X2


---------------------------
04:48
SOLO 3                          hold
*******                         bend                            br
e|--s--------------|---p----b-15--|---brp-----------|-----15~~~-15-15~~~~~~~-|
B|-5\-15~~~~~~~~~~-|-15-13-15----15--15--13-12~~~~~-|--br--------------------|
G|-----------------|--------------------------------|-16---------------------|
D|-----------------|--------------------------------|------------------------|
A|-----------------|--------------------------------|------------------------|
E|-----------------|--------------------------------|------------------------|
                                hold
                                bend
e|--s--------------|---p----b-15--|---brp---------br-----s-|
B|-5\-15~~~~~~~~~~-|-15-13-15----15--15--13-12~~~12--12~~\-|
G|-----------------|---------------------------------------|
D|-----------------|---------------------------------------|
A|-----------------|---------------------------------------|
E|-----------------|---------------------------------------|

05:07
e|---------------------|-----------------------------------|----------------|
B|-------b-brp-------s-|--s-10~~~~-8~~~~---s--8--s---------|---br-----------|
G|---5-7-7-7--5-7~~~~\-|-5\---------------5\9---9\7~~~~~~~-|-0-4~~~----s----|
D|-7-------------------|-----------------------------------|-x------5~~\7-7-|
A|---------------------|-----------------------------------|----------------|
E|---------------------|-----------------------------------|----------------|    
                                            hold
05:22                                       bend
e|--s-------b--r-------|--------------b---15-|---rbp--------rbp------|
B|-8\10~~~-10----8~~~~-|---s---13-15-15------15-15--13-15--15--13-15-|
G|---------------------|-12\14---------------------------------------|
D|---------------------|---------------------------------------------|
A|---------------------|---------------------------------------------|
E|---------------------|---------------------------------------------|


e|-----br------p------------------------|
B|-13-12~~~~-10-8-10~~~~~~~~~~~~~~~~~~~-|
G|--------------------------------------|
D|--------------------------------------|
A|--------------------------------------|
E|--------------------------------------|


---------------------------
05:34
SYNTH - Am Em - some type of pedal effect turning the controls of the pedal
******

---------------------------
06:44 - 07:07
TRILL 
******
e|-------------------------------------------------------------------------------|
B|---------------------fade in and out with volume-------------------------------|
G|--h-p-h-p-h-p-h-p-h-p-h-p-h-p-h-p-h-p-h-p-h-p-h-p-h-p-h-p-h-p-h-p-h-p-h-p-h-p--|
D|-3-5-3-5-3-5-3-5-3-5-3-5-3-5-3-5-3-5-3-5-3-5-3-5-3-5-3-5-3-5-3-5-3-5-3-5-3-5-3-|
A|-------------------------------------------------------------------------------|
E|-------------------------------------------------------------------------------|


---------------------------
07:20
BASS COME IN AT 


---------------------------
08:08
PLUCKING - Palm Mute - Gradually getting louder
*********
e|---------------------------------------|
B|---------------------------------------|
G|----------------------------------h--3-|
D|-5-555-555-555-555-555-555-555-553-5---|Play this 
A|---------------------------------------|  to the end 
E|---------------------------------------|     of the 4th SOLO.


---------------------------
09:05
SOLO 4
*******
  GUITAR 1
e|-----------------------------------|------------------------------------|
B|-----------------------------------|------------------------------------|
G|--------s-----------------------br-|-------s----------------s-----------|
D|-5~~~~-5\7-7~~~~~-8~~~~~-7~~~~~-7--|-5~~~~~\-7~~~~~-8~~~~~-8\10-10~~~~~-|
A|-----------------------------------|------------------------------------|
E|-----------------------------------|------------------------------------|
 |
 |GUITAR 2
e|---------------|---------------|---------------|---------------|-Ect. Ect.-------|
B|---------------|---------------|---------------|---------------|-This Guitar-2---|
G|---------------|---------------|---------------|---------------|---Continues-----|
D|---5-5-3-------|---5-5-3-------|---5-5-3-------|---5-5-3-------|--Through the ---|
A|---------5-----|---------5-----|---------5-----|---------5-----|-solo increasing-|
E|-----------3-3-|-----------3-3-|-----------3-3-|-----------3-3-|---In Volume.----|


e|-----------------------------|----------|-------------|----------|------------|
B|-----------------------------|---h------|---b-r-------|--------b-|--b-rp------|
G|---s-------------s-----------|-10-12-12-|-14----14~~~-|-12-14-14-|-14---12-14-|
D|-10\12-12~~~~~-12\15-15~~~~~-|----------|-------------|----------|------------|
A|-----------------------------|----------|-------------|----------|------------|
E|-----------------------------|----------|-------------|----------|------------|

                         09:43        b                 b       brp             br
e|--------|-------------|--------b--17--17~~~~-|-15-17-17~~~-|-17--15-17~~~~-|-17-|
B|--b-r---|--brbrp------|-15-18-18-------------|-------------|---------------|----|
G|-14--12-|-12----10-12-|----------------------|-------------|---------------|----|
D|--------|-------------|----------------------|-------------|---------------|----|
A|--------|-------------|----------------------|-------------|---------------|----|
E|--------|-------------|----------------------|-------------|---------------|----|

09:53                         b                 b       brp             br
e|--b----rb---b----rb---b-|-17--17~~~~-|-15-17-17~~~-|-17--15-17~~~~-|-17-|
B|-18~~-18---18~~-18---18-|------------|-------------|---------------|----|
G|------------------------|------------|-------------|---------------|----|
D|------------------------|------------|-------------|---------------|----|
A|------------------------|------------|-------------|---------------|----|
E|------------------------|------------|-------------|---------------|----|
       hold
       bend                            
e|--b--|--|---rb--b--b---rbr--br-|
B|-18-18-18--18--18-18--18---18--|
G|-------------------------------|
D|-------------------------------|
A|-------------------------------|
E|-------------------------------|

10:15   p        p        p        p        p        p        p        p        p        p
e|----18-15----18-15----18-15----18-15----18-15----18-15----18-15----18-15----18-15----18-15--|
B|-15-------15-------15-------15-------15-------15-------15-------15-------15-------15--------|
G|--------------------------------------------------------------------------------------------|
D|--------------------------------------------------------------------------------------------|
A|--------------------------------------------------------------------------------------------|
E|--------------------------------------------------------------------------------------------|

          b   b   br  h  p       WHA WHA................................................
e|----18-18--18--18-15-18-15--b-|--------------UB--UB-UB--UB-UB--UB--------------------|
B|-15------------------------18-|-----------b--15--15-15--15-15--15------------------s-|
G|------------------------------|----15-17-17--17--17-17--17-17--17--17----15-17-15~~\-|
D|------------------------------|-17------------------------------------17-------------|
A|------------------------------|------------------------------------------------------|
E|------------------------------|------------------------------------------------------|

  ..................................................................................
e|---------------|---------------|---------------|---------------------------------|
B|---------------|---------------|---------------|----Feed back--------------------|
G|---------------|---------------|---------------|-------------and-----------------|
D|---------------|---------------|---------------|-----------------Whammy Bar------|
A|---------------|---------------|---------------|---------------------------------|
E|-3--3--3--3--3-|-3--3--3--3--3-|-3--3--3--3--3-|-3~~~~~~~~~~~~~~~~~~~~~~~~~~~~~~-|


---------------------------
11:18
ORGAN
******
Gm F C Eb x2

---------------------------
11:56
SOLO 5
*******
e|--------------------------|----------s------|--brp----b-----|-15--brp----b-----|
B|-b------8-brp---brp-------|--s--6---6\8~~~~-|-13--11-13~~~~-|----13--11-13~~~~-|
G|-5~~~~~---5--3-5---3-5~~~-|-3\5---5---------|---------------|------------------|
D|--------------------------|-----------------|---------------|------------------|
A|--------------------------|-----------------|---------------|------------------|
E|--------------------------|-----------------|---------------|------------------|

                                       Rake
e|--b-rp---------------|--------------|------------------------|
B|-13---11-10~~~~~~~~~-|---h----b-r---|------p-----------------|
G|---------------------|-12-14-14--12-|----12-10-----b-------r-|
D|---------------------|--------------|--10------12-10~~~~-----|
A|---------------------|--------------|-x----------------------|
E|---------------------|--------------|------------------------|

12:35    Rake     b   rbp
e|--b------15-17-17--17--15-17~~~~~~-|------p----b--r----|
B|-18~~~--15-------------------------|-15-18-15-18----15-|
G|-------15--------------------------|-------------------|
D|-----------------------------------|-------------------|
A|-----------------------------------|-------------------|
E|-----------------------------------|-------------------|


e|----------------|-15--p---|---------|--------------------|
B|--b-15-18--b-15-|---18-15-|---brp---|---p------------h---|
G|-17-------17----|---------|-17---15-|-17-15----15~~~~-17-|
D|----------------|---------|---------|-------17-----------|
A|----------------|---------|---------|--------------------|
E|----------------|---------|---------|--------------------|


e|----UB--UB-UB-UB-Ub------------|
B|-18-15--15-15-15-15rbp---------|
G|----17--17-17-17-17---15-14~~~-|
D|-------------------------------|
A|-------------------------------|
E|-------------------------------|

13:00
e|----------------------------------------------|---------------|-------------------|
B|---h--h------p---------p----------------------|---------------|-------------------|
G|-14-15-17--15-14-12--10-8-10---s--------p-----|--h-----s---10-|---s-------p-------|
D|-----------------------------12\10-8--10-8----|-8-10-10\12----|-12\10-8-10-8----8-|
A|-------------------------------------------10-|---------------|--------------10---|
E|----------------------------------------------|---------------|-------------------|


---------------------------
13:08
e|-----------------------------------------|-------------------------------------------|
B|---s-------------------------------------|---s---------------------------------------|
G|-14\15-15--15-15--15-15--15-15--15-14-14-|-10\12-12--12-12--1212--12-12--12-12--1212-|
D|-----------------------------------------|-------------------------------------------|
A|-----------------------------------------|-------------------------------------------|
E|-----------------------------------------|-------------------------------------------|


e|-------------------------------------------|-------------------------------------------|
B|---s---------------------------------------|---s---------------------------------------|
G|-12\14-14--14-14--1414--14-14--14-14--1414-|-10\12-12--12-12--1212--12-12--12-12--1212-|
D|-------------------------------------------|-------------------------------------------|
A|-------------------------------------------|-------------------------------------------|
E|-------------------------------------------|-------------------------------------------|


e|-------------------------------------------------|
B|------s------------------------------------------|
G|-12-12\15-15--15-15--15-15--15151515--1515--1515-|
D|-------------------------------------------------|
A|-------------------------------------------------|
E|-------------------------------------------------|

13:32
e|--------------------------------------------------------|
B|---s----------------------------------------------------|
G|-10\12-12-12-12-12-1212121212-12-12-12-12-12-1212121212-|
D|--------------------------------------------------------|
A|--------------------------------------------------------|
E|--------------------------------------------------------|


e|--------------------------------------------------------|
B|---s----------------------------------------------------|
G|-12\14-14-14-14-14-1414141414-14-14-14-14-14-1414141414-|
D|--------------------------------------------------------|
A|--------------------------------------------------------|
E|--------------------------------------------------------|


e|--------------------------------------------------------|
B|---s----------------------------------------------------|
G|-10\12-12-12-12-12-1212121212-12-12-12-12-12-1212121212-|
D|--------------------------------------------------------|
A|--------------------------------------------------------|
E|--------------------------------------------------------|


e|----------------------------------------------------|
B|---s------------------------------------------------|
G|-12\15-15-15-15-15-15-15-15-15-15-15-15-15-14-14-12-|
D|----------------------------------------------------|
A|----------------------------------------------------|
E|----------------------------------------------------|


---------------------------
14:07
OUTRO  hold
****** bend
e|--b--|--|---s---------------------|---------------------|----------|
B|-13-13-13-11\10---------s---------|----15-----15--------|-15-18----|
G|----------------12~~~-10\12-------|---------------------|-------14-|
D|----------------------------12~~~-|-12-----12-----15-14-|----------|
A|----------------------------------|---------------------|----------|
E|----------------------------------|---------------------|----------|

14:33                                   rake
e|---s---18---s----17-|---------s---18-|---20-18-17-17----|------p------|-------------------|
B|-13\15----15\13-----|-13-13-13\15----|--x------------18-|----18-15-18-|------p------------|
G|--------------------|----------------|-x----------------|-------------|----15-14------s---|
D|--------------------|----------------|------------------|-------------|----------15-15\17-|
A|--------------------|----------------|------------------|-------------|-------------------|
E|--------------------|----------------|------------------|-------------|-------------------|


15:42
  GUITAR 1
e|-------13----|-------11----|-------10----|-------8----|
B|----11----11-|----11----11-|----11----11-|----11---11-|Continue playing
G|-12----------|-12----------|-12----------|-12---------|  This And 
D|-------------|-------------|-------------|------------|      fade out
A|-------------|-------------|-------------|------------|
E|---------------------------|-------------|------------|

  GUITAR 2
e|------------|------------|------------|-----------------|
B|------3-----|------3-----|------3-----|------3-------s--|
G|----3---3-2-|----3---3-2-|----3---3-2-|----3---3-2--3\5-|
D|-5----------|-5----------|-5----------|-5---------------|
A|------------|------------|------------|-----------------|
E|------------|------------|------------|-----------------|X2



ENJOY..........


p   = Pull Off
h   = Hammer On
b   = Bend
rb  = Release Bend
rbp = Release Bend Pulloff
br  = Bend Release
brp = Bend Release Pulloff
/   = Slide
UB  = Union Bend
Suggest correction
Creating personal tab
Creating personal tab
You can edit any tab online and save it as your Personal.

You can edit, replace or remove any tab part or add personal notes – all changes will be seen only by you.

Personal tabs can be accessed anytime from any device, even offline.
Learn more »
comments
print report bad tab
2 comments total.
0 reply
ehmand 32 Mar 03, 2017 08:52 AM

I believe the Em in the verses should be a G.

guest
You may want to rate the tab now too:
select rating
Wanna post a correction for this tab? Suggest correction