Oops, an error
Loading. Please wait.

How I Wanna Be chords

by Airbag
181 views 1 this week
no commentswrite comment
1 2 3 4 5
x 5
add to favorites
×
Save as Personal and add changes to this tab that will be seen only by you. Learn more ›
×
You can save this tab as Personal to edit and correct it or add notes. All changes will be seen only by you. Learn more »
launch autoscroll
font size
0
reset
transpose
0
reset
display chords
guitar tuner
edit
Autoscroll
slow
fast
+/-
esc
set tempo
stop
Author
Difficulty
Strumming
There is no strumming pattern for this song yet. and get +5 IQ
-------------------------------------------------------------------------------------------------------------
                                          Artist - Airbag
                                         *****************
                                       Song - How I Wanna Be
                                      ***********************
                                      Album - Identity (2009)    
                                     *************************
                                        Tabbed By - Ayreon77
                                       **********************
-------------------------------------------------------------------------------------------------------------
Tuning = Standard

p   = Pull Off
h   = Hammer On
b   = Bend
rb  = Release Bend
rbp = Release Bend Pulloff
br  = Bend Release
brp = Bend Release Pulloff
/   = Slide
UB  = Union Bend



INTRO - Keyboard
******
Am Em F X2


-----------------------------------------
VERSE 1
********
Am      Em         F
I can't    feel my hands
Am              Em   F
It's cold where    I go


-----------------------------------------
CHORUS
*******
          Am            Em      F
And how I wanna be here    with you
      Am            Em      F
How I wanna be just    like you


-----------------------------------------
01:17
ELECTRIC GUITAR - Am Em F
****************
e|--------------------------------------|------------------------------------|
B|--s------s------s-------s-------------|--s------s------s-----------------s-|
G|-9\7-7--7\5-5--5\4-4--4-\5-5--9----12-|-9\7-7--7\5-5--5\4-4--4-5--2----14\-|
D|--------------------------------------|------------------------------------|
A|--------------------------------------|------------------------------------|
E|--------------------------------------|------------------------------------|


e|------------------------------------------|-----------------------------|
B|--s------s------s-------s-------------s---|--s------s------s------------|
G|-9\7-7--7\5-5--5\4-4--4-\5-5--9----9-9\12-|-9\7-7--7\5-5--5\4-4--4-5--2-|
D|------------------------------------------|-----------------------------|
A|------------------------------------------|-----------------------------|
E|------------------------------------------|-----------------------------|


-----------------------------------------
VERSE 2
********
Am
But I don't feel too good inside

My stomach aches and no one listens

This could have been a million dreams

But instead I wake up alone


CHORUS
******* 
          Am            Em      F
And how I wanna be here    with you
          Am            Em      F
And how I wanna be just    like you
          Am            Em      F
And how I wanna be here    with you
          Am       Em  F
And how I wanna be


-----------------------------------------
02:53
ELECTRIC GUITAR - Am Em F
****************
e|------------------------------------------|-------------------------------------|
B|--s------s------s-------s-------------s---|--s------s------s-----------------s--|this
G|-9\7-7--7\5-5--5\4-4--4-\5-5--9----9-9\12-|-9\7-7--7\5-5--5\4-4--4-5--2-----2\4-|carries on 
D|------------------------------------------|-------------------------------------|through the
A|------------------------------------------|-------------------------------------|solo
E|------------------------------------------|-------------------------------------|


-----------------------------------------
03:09
SOLO - Am Em F
*****
  GUITAR 1
e|-----------------------------------|-------------------------------|---------------------------------|
B|-10---Whammy-----------------------|-10-------b-r------------------|-10------------------------------|
G|-----9/\/\/\/\/\---------5/\/\/\/\-|-----9/\/\/\/\---------5/\/\/\-|-----9/\/\/\/\---------5/\/\/\/\-|
D|-------------------s---------------|-----------------s-5-----------|-----------------s-5-------------|
A|------------------7\-3-------------|----------------7\-3-----------|----------------7\-3-------------|
E|-----------------------------------|-------------------------------|---------------------------------|
 |                                                                   |                                 |
 |                                                                   |GUITAR 2                         |
e|-------------------------------------------------------------------|-------------b-------------------|
B|-------------------------------------------------------------------|--------10--10---/\/\/\----------|
G|-------------------------------------------------------------------|-----9---------------------------|
D|-------------------------------------------------------------------|---------------------------------|
A|-------------------------------------------------------------------|---------------------------------|
E|-------------------------------------------------------------------|---------------------------------|


03:33
  GUITAR 1
e|-----------------------------------|-----------------------------------|-----------------------------------|
B|-10--------------------------------|-10--------------------------------|-10--------------------------------|
G|-----9/\/\/\/\/\---------5/\/\/\/\-|-----9/\/\/\/\/\---------5/\/\/\/\-|-----9/\/\/\/\/\---------5/\/\/\/\-|
D|-------------------s---------------|-------------------s---------------|-------------------s---------------|
A|------------------7\-3-------------|------------------7\-3-------------|------------------7\-3-------------|
E|-----------------------------------|-----------------------------------|-----------------------------------|
 |                                                                                                           |
 |GUITAR 2                                                                                                   |
e|-----------------s-----------------|-----------------------------s-----|-----------------------------------|
B|-8~~~~~~~~~~~~-10\-5-/\/\/\--------|----------------------------5\8-8--|--------------------------------12-|
G|-----------------------------------|-----------------------------------|-----------------------------------|
D|-----------------------------------|-----------------------------------|-----------------------------------|
A|-----------------------------------|-----------------------------------|-----------------------------------|
E|-----------------------------------|-----------------------------------|-----------------------------------|


03:57
  GUITAR 1
e|-----------------------------------|--------------------------------------------------------|
B|-10--------------------------------|-10-----------------------------------------------------|
G|-----9/\/\/\/\/\---------5/\/\/\/\-|-----9/\/\/\/\/\---------5/\/\/\/\/\/\-feedback........-|
D|-------------------s---------------|-------------------s------------------------------------|
A|------------------7\-3-------------|------------------7\-3----------------------------------|
E|-----------------------------------|--------------------------------------------------------|
 |                                                                                            |
 |GUITAR 2                                                                                    |
e|-----------------s-------b---------|--------------------------------s-----------------------|
B|-12~~~~~~~~~~~-12\13-13-13--/\/\/\-|-8~~~~~~~--------------------3-3\5~~~~~~~~~~~~~~~~~~----|
G|-----------------------------------|--------------------------------------------------------|
D|-----------------------------------|--------------------------------------------------------|
A|-----------------------------------|--------------------------------------------------------|
E|-----------------------------------|--------------------------------------------------------|


04:20                                      05:01
e|----------------------------------------|-----------------|-----------------|-----------|------------------|
B|----------------------------------------|-----------------|-----------------|-----------|------------------|
G|----------7--9---------------------7--9-|-----------------|-----------------|-----------|------------------|
D|-7--5---------------7--5-----5----------|-10--9--5---7--2-|-10--9--5---7--2-|-5----7--5-|-5-----2--5-----5-|
A|----------------------------------------|-----------------|-----------------|-----------|------------------|
E|----------------------------------------|-----------------|-----------------|-----------|------------------|



ENJOY............

            
            
Suggest correction
Creating personal tab
Creating personal tab
You can edit any tab online and save it as your Personal.

You can edit, replace or remove any tab part or add personal notes – all changes will be seen only by you.

Personal tabs can be accessed anytime from any device, even offline.
Learn more »
comments
print report bad tab
guest
You may want to rate the tab now too:
select rating
Wanna post a correction for this tab? Suggest correction