Oops, an error
Loading. Please wait.

Identity 2009 album chords

by Airbag
4 views 1 this week
no commentswrite comment
1 2 3 4 5
1 last vote to show rating
add to favorites
×
Save as Personal and add changes to this tab that will be seen only by you. Learn more ›
×
You can save this tab as Personal to edit and correct it or add notes. All changes will be seen only by you. Learn more »
launch autoscroll
font size
0
reset
transpose
0
reset
simplify chords
display chords
guitar tuner
edit
Autoscroll
slow
fast
+/-
esc
set tempo
stop
Strumming
There is no strumming pattern for this song yet. and get +5 IQ
--------------------------------------------------------------------------------------------------------------
Track 1                        Artist - Airbag
                              *****************
                               Song - Prelude
                              ****************
                           Album - Identity (2009)
                          *************************
                            Tabbed By - Ayreon77
                           **********************
--------------------------------------------------------------------------------------------------------------
Tuning = Standard


01:33
ELECTRIC GUITAR - Fade in
****************
  GUITAR 1
e|---s------|---s------|---s------|---s------|---s------|---s------|---s------|---s------|---s------|
B|-13\12-15-|-13\12-15-|-13\12-15-|-13\12-15-|-13\12-15-|-13\12-15-|-13\12-15-|-13\12-15-|-13\12-15-|
G|----------|----------|----------|----------|----------|----------|----------|----------|----------|
D|----------|----------|----------|----------|----------|----------|----------|----------|----------|
A|----------|----------|----------|----------|----------|----------|----------|----------|----------|
E|----------|----------|----------|----------|----------|----------|----------|----------|----------|
 |                                                                                                  |
 |GUITAR 2                                                                                          |
e|--------------------------------------------Fade in-------------------------|---------------------|
B|---------------------------------------------15~~~~~~~~~~~~~~~~~~~~~~~~~~~~-|-13-12-13-15~~~~~~~~~|
G|----------------------------------------------------------------------------|---------------------|
D|----------------------------------------------------------------------------|---------------------|
A|----------------------------------------------------------------------------|---------------------|
E|----------------------------------------------------------------------------|---------------------|

01:51
e|---h--h--------------p---------------|---h--h-------------b----p---------|
B|-12-13-15~~~~~~~~~-13-12~~~~---------|-12-13-15~~~~~~~~~-15--15-13-15~~~-|
G|-----------------------------12~~~~~-|-----------------------------------|
D|-------------------------------------|-----------------------------------|
A|-------------------------------------|-----------------------------------|
E|-------------------------------------|-----------------------------------|

02:15
e|---h--h--------------p----------------|-------------|---------|
B|-12-13-15~~~~~~~~~-13-12~~~~--------s-|---s---------|----s----|
G|-----------------------------12~~~~~\-|-9-\-14~~~~~-|-16-\-12-|
D|--------------------------------------|-------------|---------|
A|--------------------------------------|-------------|---------|
E|--------------------------------------|-------------|---------|

02:39                                /pitch
e|--brb----------h----------|-------/-bend--|
B|-12--~~~~~~~~-8-10--------|-15~~~---------|
G|-------------------9~~~~~-|---------------|
D|--------------------------|---------------|
A|--------------------------|---------------|
E|--------------------------|---------------|

03:03
  Guitar 1
e|-------------|------------|--------------|-----------|
B|-------------|------------|---s----------|-----------|
G|-16~~~-12~~~-|------------|-9-\-14-16~~~-|-----------|
D|-------------|------------|--------------|-----------|
A|-------------|------------|--------------|-----------|
E|-------------|------------|--------------|-----------|
 |                                                     |
 |GUITAR 2                                             |
e|-------------|-----/pitch-|--------------|----/Pitch-|
B|-------------|-10-/-bend--|--------------|-12/-bend--|
G|-------------|------------|--------------|-----------|
D|-------------|------------|--------------|-----------|
A|-------------|------------|--------------|-----------|
E|-------------|------------|--------------|-----------|

03:26
     brp                                                     Piano Notes :)
e|-19---17-19~~~~-|---------------------|---h---------------|-12--10------|
B|----------------|---------h-----------|-12-13-15~~~~~~~~~-|---------12--|
G|----------------|---s---12-14-14~~~~~-|-------------------|-------------|
D|----------------|-12\14---------------|-------------------|-------------|
A|----------------|---------------------|-------------------|-------------|
E|----------------|---------------------|-------------------|-------------|

03:52
e|---h--h--------------p---------------|---h--h---------------17~~~~-15~~~~-|
B|-12-13-15~~~~~~~~~-13-12~~~~---------|-12-13-15~~~~~~~~~-15---------------|
G|-----------------------------12~~~~~-|------------------------------------|
D|-------------------------------------|------------------------------------|
A|-------------------------------------|------------------------------------|
E|-------------------------------------|------------------------------------|

04:15                                                        Whammy
e|---h--h--------------p---------------|-17----17--17----17----/\--|
B|-12-13-15~~~~~~~~~-13-12~~~~---------|----15--------15-----12~~~-|
G|-----------------------------12~~~~~-|---------------------12~~~-|
D|-------------------------------------|---------------------12~~--|
A|-------------------------------------|---------------------------|
E|-------------------------------------|---------------------------|

04:39
e|------/Pitch-|
B|-8~~~/-bend--|
G|-------------|
D|-------------|Tick,Tock
A|-------------|     Tick,Tock
E|-------------|          Tick,Tock.............



ENJOY.............



--------------------------------------------------------------------------------------------------------------
Track 2                                  Artist - Airbag
                                         *****************
                                         Song - No Escape
                                        ******************
                                      Album - Identity (2009)
                                     *************************
                                       Tabbed By - Ayreon77
                                      **********************
--------------------------------------------------------------------------------------------------------------
Tuning = Standard


Asus4 = 002200

INTRO
******
Acoustic
  Asus4                             Dm
Clean Electric Picking 1
e|---------------------------------|---------------------------------|
B|---------------------------------|-----3-------3-------3-------3---|
G|-----2-------2-------2-------2---|---2---2---2---2---2---2---2---2-|
D|---2---2---2---2---2---2---2---2-|-0-------0-------0-------0-------|
A|-0-------0-------0-------0-------|---------------------------------|
E|---------------------------------|---------------------------------|X2
 |                                                                   |
 |Heavier Guitar 2                                                   |
e|---------------------------------|---------------------------------|
B|---------------------------------|---------------------------------|
G|----s-------------s--------------|----s---------------s------------|
D|---5\7----2------3\5-5-----5-----|---5\3----2---3----3\5----5---5--|
A|---------------------------------|---------------------------------|
E|---------------------------------|---------------------------------|

  Heavier Guitar 2
e|---------------------------------|--------------------------------------|
B|---------------------------------|--------------------------------------|
G|----s-------------s--------------|----s--------------s-s----------------|
D|---5\7----2------3\5-5-----5-----|---5\3----2---3---2\3/2---s-s------s--|
A|---------------------------------|-------------------------5\7/5--3-5\7-|
E|---------------------------------|--------------------------------------|


----------------------------------------
VERSE 1                                            00:39
********                                            Listen for the timings of it
F                     Am                           |----------------|--------------|
Why am I here on this distant road                 |---10------10---|---8------8---|
F                                      Am          |-9----9--9----9-|-9---9--9---9-|
  Is this something that I should have seen before |----------------|--------------|
F                                                  |----------------|--------------|
Let's turn around                                  |----------------|--------------|
              Am
There must be something we forgot
F                      Am
  Nothing I see is for real


----------------------------------------
CHORUS - Play The Intro With The Chorus
*******
Asus4                 Dm        Asus4
And thought I saw you    fading away
           Dm
Into the blue
              Asus4     Dm  Asus4  Dm
But you can't escape


----------------------------------------
VERSE 2
********
F
There's a corner in my house
                   Am
They're telling me it's mine                           (Same Picking As Above)
F                                      Am
  Why does it feel like I've been here before
               F
Please pull me out of this dream
                Am
And out of this life
                    F
'Cause nothing that I see is for real
    Am
Not anymore

----------------------------------------
BREAK
F Am X4
----------------------------------------
03:13
Go Back Into INTRO
             *****

----------------------------------------
CHORUS - Play The Intro With The Chorus
*******
Asus4                 Dm        Asus4
And thought I saw you    fading away
           Dm
Into the blue
              Asus4   Dm
And you can't escape
             Asus4    Dm
No you can,t escape

Asus4 Dm Asus4 Dm Asus4


F Am F Am

Repeat and fade



ENJOY.......


--------------------------------------------------------------------------------------------------------------
Track 3                                   Artist - Airbag
                                         *****************
                                       Song - Safe Like You
                                      **********************
                                      Album - Identity (2009)
                                     *************************
                                        Tabbed By - Ayreon77
                                       **********************
--------------------------------------------------------------------------------------------------------------
Tuning = Standard

p   = Pull Off
h   = Hammer On
b   = Bend
rb  = Release Bend
rbp = Release Bend Pulloff
br  = Bend Release
brp = Bend Release Pulloff
/   = Slide
UB  = Union Bend



INTRO - Keyboards - Em F


-----------------------------------------------
EBOW SOLO
**********
00:22
e|-----------------------------------------------------------------------------------------------------|
B|----------------------------s--------------s-------------s-----s-----s--------------s--------------s-|
G|-12~~~~~~~~~~~~~~~~~~~~~~~~~\14~~~~~~~~~~~~\12~~~~~~~~~~~\9~~~~\12~~~~\9~~~~~~~~~~~~\7~~~~~~~~~~~~~\-|E
D|-----------------------------------------------------------------------------------------------------|B
A|-----------------------------------------------------------------------------------------------------|O
E|-----------------------------------------------------------------------------------------------------|W
                                                                     VERSE 1
                                                                     Over and over I stumble across
e|-----------------------------------------------------------------------------------------------------|
B|----------------------------s--------------s-----------------------s---------------------------------|
G|-12~~~~~~~~~~~~~~~~~~~~~~~~~\14~~~~~~~~~~~~\12~~~~~~~~~~~~~~~~~~~~~\9~~~~~~~~~~~~~~~~~~~~~~~~~~~~----|E
D|-----------------------------------------------------------------------------------------------------|B
A|-----------------------------------------------------------------------------------------------------|O
E|-----------------------------------------------------------------------------------------------------|W

  The line I drew here on my floor                                   No one knows but I can tell
e|-----------------------------------------------------------------------------------------------|
B|--------------------------------s-----------------------------------s--------------------------|
G|~~~~~~~~~~~~~~~~~~~~~~~~~~~~~~~~\12~~~~~~~~~~~~~~~~~~~~~~~~~~~~~~~~~\9~~~~~~~~~~~~~~~~~~~~~~~~-|E
D|-----------------------------------------------------------------------------------------------|B
A|-----------------------------------------------------------------------------------------------|O
E|-----------------------------------------------------------------------------------------------|W

  That I don't live here anymore
e|----------------------------------------------------------------------------------------------------------|
B|------------------------------s---------------------s--------------s-------------s-----s-----s---------s--|
G|~~~~~~~~~~~~~~~~~~~~~~~~~~~~~~\12~~~~~~~~~~~~~~~~~~~\14~~~~~~~~~~~~\12~~~~~~~~~~~\9~~~~\12~~~\9~~~~~~~~\7-|E
D|----------------------------------------------------------------------------------------------------------|B
A|----------------------------------------------------------------------------------------------------------|O
E|----------------------------------------------------------------------------------------------------------|W


-----------------------------------------------
                                                                     VERSE 2
                                                                     Paralyzed but confident
e|-------------------------------------------------------------------------------------------|
B|--------s-------------------s--------------s-----------------------s-----------------------|
G|-~~~~~~~\12~~~~~~~~~~~~~~~~~\14~~~~~~~~~~~~\12~~~~~~~~~~~~~~~~~~~~~\9~~~~~~~~~~Fade Out...-|E
D|-------------------------------------------------------------------------------------------|B
A|-------------------------------------------------------------------------------------------|O
E|-------------------------------------------------------------------------------------------|W

                          F
I feel the pain inside my head
C
My stomach aches
                                F
When you look at me as if I was fake


-----------------------------------------------
02:15
CHORUS
*******
PICKING - Play this with the CHORUS below
********
  Fmaj7
e|---------|---------|---------|---------|---------|---------|---------|---------|---------|---------|
B|-----1---|-----1---|-----1---|-----1---|-----1---|-----1---|-----1---|-----1---|-----1---|-----1---|
G|---2---2-|---2---2-|---2---2-|---2---2-|---2---2-|---2---2-|---2---2-|---2---2-|---2---2-|---2---2-|
D|-3-------|-3-------|-3-------|-3-------|-3-------|-3-------|-3-------|-3-------|-3-------|-3-------|
A|---------|---------|---------|---------|---------|---------|---------|---------|---------|---------|
E|---------|---------|---------|---------|---------|---------|---------|---------|---------|---------|

  Em                                          Fmaj7
e|----------|----------|----------|----------|---------|---------|---------|---------|
B|-----3----|-----3----|-----3----|-----3----|-----1---|-----1---|-----1---|-----1---|
G|---0---0--|---0---0--|---0---0--|---0---0--|---2---2-|---2---2-|---2---2-|---2---2-|
D|-2--------|-2--------|-2--------|-2--------|-3-------|-3-------|-3-------|-3-------|Repeat this
A|----------|----------|----------|----------|---------|---------|---------|---------|Section for
E|----------|----------|----------|----------|---------|---------|---------|---------| the desired amount


        F                            Em
I wanna be                 safe like you are
e|---------15~~~~~~~~~~~~~~~~~~~\17~~~~~~~~\15~~~~~~~-|
B|----------------------------------------------------|
G|----------------------------------------------------|E
D|----------------------------------------------------|B
A|----------------------------------------------------|O
E|----------------------------------------------------|W
              F              Em
safe from the strain I feel
e|---------15~~~~~~~~~~~~~~~~~~~\17~~~~~~\15~~~~~~~\12~~~~~~~-|
B|------------------------------------------------------------|
G|------------------------------------------------------------|E
D|------------------------------------------------------------|B
A|------------------------------------------------------------|O
E|------------------------------------------------------------|W
        F                            Em
I wanna be                 safe like you are
e|---------15~~~~~~~~~~~~~~~~~~~\17~~~~~~\15~~~~~~~\12~~~~~~~-|
B|------------------------------------------------------------|
G|------------------------------------------------------------|E
D|------------------------------------------------------------|B
A|------------------------------------------------------------|O
E|------------------------------------------------------------|W
              F
Away from the noise I hear
e|------------15~~~~~~~~~~~~~~~~~~~\17~~~~~~~~\15~~~~~~~-|
B|-------------------------------------------------------|
G|-------------------------------------------------------|E
D|-------------------------------------------------------|B
A|-------------------------------------------------------|O
E|-------------------------------------------------------|W


-----------------------------------------------
04:50
SOLO 1                                            hold
*******                                           bend
e|---------h--p--p------|--h-----|--brp-----|--b--|--|--rb------|
B|-12-12-12-13-12-10-12-|-8-10---|-10--8-10-|-12-12-12-12-10-12-|
G|----------------------|------9-|----------|-------------------|
D|----------------------|--------|----------|-------------------|
A|----------------------|--------|----------|-------------------|
E|----------------------|--------|----------|-------------------|


-----------------------------------------------
05:00
FAST PICKING
*************
e|----|----------|----------|----------|----|----------|----------|----------|\
B|----|-12-------|-12-------|-12-------|----|-12-------|-12-------|-12-------| \
G|----|----12----|----12----|----12----|----|----12----|----12----|----12----|  \
D|-14-|-------14-|-------14-|-------14-|-14-|-------14-|-------14-|-------14-|   \
A|----|----------|----------|----------|----|----------|----------|----------|    \
E|----|----------|----------|----------|----|----------|----------|----------|     \
                                                                                    \
                                                                                    /X4
e|----|----------|----------|----------|----|----------|----------|----------|     /
B|----|-13-------|-13-------|-13-------|----|-13-------|-13-------|-15-------|    /
G|----|----14----|----14----|----14----|----|----14----|----14----|----14----|   /
D|-15-|-------15-|-------15-|-------15-|-15-|-------15-|-------15-|-------15-|  /
A|----|----------|----------|----------|----|----------|----------|----------| /
E|----|----------|----------|----------|----|----------|----------|----------|/

05:14
EBOW SOLO - Play this with the above Fast Picking
**********
e|-----------s----s---------|-----------s----s---------|-----------s----s-------|-----------s----s---------|
B|-5~~~~~~~~~\17~~\12~~~~~~-|-5~~~~~~~~~\17~~\12~~~~~~-|-6~~~~~~~~~\18~~\13~~~~-|-6~~~~~~~~~\18~~\13~~~~~~-|
G|--------------------------|--------------------------|------------------------|--------------------------|E
D|--------------------------|--------------------------|------------------------|--------------------------|B
A|--------------------------|--------------------------|------------------------|--------------------------|O
E|--------------------------|--------------------------|------------------------|--------------------------|W

                                                                                  s       s
e|-----------s----s---------|-----------s----s---------|-----------s----s-------|-\17~~~~~\20~~~~~13~~~~~~-|
B|-5~~~~~~~~~\17~~\12~~~~~~-|-5~~~~~~~~~\17~~\12~~~~~~-|-6~~~~~~~~~\18~~\13~~~~-|--------------------------|
G|--------------------------|--------------------------|------------------------|--------------------------|E
D|--------------------------|--------------------------|------------------------|--------------------------|B
A|--------------------------|--------------------------|------------------------|--------------------------|O
E|--------------------------|--------------------------|------------------------|--------------------------|W


e|-----------s----s---------|-----------s----s---------|-----------s----s---------|---------s----s---------|
B|-5~~~~~~~~~\17~~\12~~~~~~-|-5~~~~~~~~~\17~~\12~~~~~~-|-6~~~~~~~~~\18~~\13~~~~~~-|-6~~~~~~~\18~~\13~~~~~~-|
G|--------------------------|--------------------------|--------------------------|------------------------|E
D|--------------------------|--------------------------|--------------------------|------------------------|B
A|--------------------------|--------------------------|--------------------------|------------------------|O
E|--------------------------|--------------------------|--------------------------|------------------------|W


-----------------------------------------------
05:53
SOLO 2 - With Picking from above
*******                                                                    06:16
e|---------------|------------------|------------------|------------------|-------|
B|---------------|------------------|------------------|------------------|-----7-|
G|---------------|------------------|------------------|------------------|--s----|
D|--s------------|-----s------------|-----s------------|-----s------------|-7\9---|
A|-5\7--3-3~~~~~-|-5--5\7--2-2~~~~~-|-5--5\7--3-3~~~~~-|-5--5\7--2-2~~~~~-|-------|
E|---------------|------------------|------------------|------------------|-------|

                                                     06:32
e|------------------|-------------------------------|-------------------------|-------------|
B|------------------|-------------------------------|-------------------------|-------------|
G|------------------|-------------------------------|-------------------------|-------------|
D|-----s------------|------------------s------------|-----s-------------------|-----s-------|
A|-5--5\7--3-3~~~~~-|--------------5--5\7--2-2~~~~~-|-5--5\7--3-3~~~~~--------|-5--5\7~~~~~-|
E|------------------|-------------------------------|-------------------------|-------------|
 |                                                                                          |
 |GUITAR 2                                                                                  |
e|------------------|---------------------------|------------------|------------------------|
B|------------------|---------------------------|------------------|------------------------|
G|------------------|---------------------------|------------------|------------------------|
D|------------------|-10-9------s---------------|------------------|------------------------|
A|------------------|------10-12\-7-------------|------------------|-12-10-12-10------------|
E|------------------|---------------------------|------------------|------------------------|


-----------------------------------------------
06:43
EBOW SOLO OUTRO
****************
e|---------------------------------------------------------------------------------------------------------|
B|--------------s-------------s-------------s------------s-------------s-------------s---------s-------s---|
G|-12~~~~~~~~~~~\14~~~~~~~~~~~\12~~~~~~~~~~~\9~~~~~~~~~~~\12~~~~~~~~~~~\14~~~~~~~~~~~\12~~~~~~~\7~~~~~\9~~-|E
D|---------------------------------------------------------------------------------------------------------|B
A|---------------------------------------------------------------------------------------------------------|O
E|---------------------------------------------------------------------------------------------------------|W


  EBOW 1
e|---------------------------------------------------------------------------------------------------------|
B|--------------------s--------s--------s-----------------s------s-------------------s----------s----------|
G|~~~~~~~~~~~~~~~~~~~~\12~~~~~~\14~~~~~~\12~~~~~~~~~~~~~~~\7~~~~~\9~~~~~~~~~~~~~~~~~~\14~~~~~~~~\12~~~~~~~-|E
D|---------------------------------------------------------------------------------------------------------|B
A|---------------------------------------------------------------------------------------------------------|O
E|---------------------------------------------------------------------------------------------------------|W
 |                                                                                                         |
 |EBOW 2   07:09                                                                                           |
e|---------------------------------------------------------------------------------------------------------|
B|-----------------s----s----s---------------------------------------------------s---------s----s----s-----|
G|---------7~~~~~~~\5~~~\4~~~\2~~~~~~~~~~~~~~~~~~~~~~~~~~~~~~~~~~~~~~~~~~~~~~~~~~\7~~~~~~~~\5~~~\4~~~\2~~~-|E
D|---------------------------------------------------------------------------------------------------------|B
A|---------------------------------------------------------------------------------------------------------|O
E|---------------------------------------------------------------------------------------------------------|W


  EBOW 1
e|---------------------------------------------------------------------------------------------------------|
B|-----------------------------s-------s---------------------s----------s--------------------s-----s-------|
G|~~~~~~~~~~~~~~~~~~~~~~~~~~~~~\7~~~~~\9~~~~~~~~~~~~~~~~~~~~~\14~~~~~~~~\12~~~~~~~~~~~~~~~~~~\7~~~~\9~~~~~-|E
D|---------------------------------------------------------------------------------------------------------|B
A|---------------------------------------------------------------------------------------------------------|O
E|---------------------------------------------------------------------------------------------------------|W
 |                                                                                                         |
 |EBOW 2                                                                                                   |
e|---------------------------------------------------------------------------------------------------------|
B|-------------------------------------------------------s--------s----s----s------------------------------|
G|~~~~~~~~~~~~~~~~~~~~~~~~~~~~~~~~~~~~~~~~~~~~~~~~~~~~~~~\7~~~~~~~\5~~~\4~~~\2~~~~~~~~~~~~~~~~~~~~~--------|E
D|---------------------------------------------------------------------------------------------------------|B
A|---------------------------------------------------------------------------------------------------------|O
E|---------------------------------------------------------------------------------------------------------|W



ENJOY............



--------------------------------------------------------------------------------------------------------------
Track 4                                   Artist - Airbag
                                         *****************
                                        Song - Steal My Soul
                                       **********************
                                       Album - Identity (2009)
                                      *************************
                                        Tabbed By - Ayreon77
                                       **********************
--------------------------------------------------------------------------------------------------------------
Tuning = Standard

p   = Pull Off
h   = Hammer On
b   = Bend
rb  = Release Bend
rbp = Release Bend Pulloff
br  = Bend Release
brp = Bend Release Pulloff
/   = Slide
UB  = Union Bend


INTRO
******
SOUND EFFECTS

---------------------------------------
PIANO
******
Cm F X2

---------------------------------------
VERSE 1
********
   Cm
If someone comes here
          F
Close the door
   Cm
If someone comes to see me sleep
               F
I tell them to turn away


---------------------------------------
CHORUS
*******
Am                            F
     Cause I used to pin your heart
Am                       F
    And I used to be the boy with the gun


---------------------------------------
EBOW GUITAR SOLO
*****************
Cm F X4
e|-----------------------------------------------------------------------------------------------|
B|--------------s---------------s-------------------------s--------------------------------------|
G|-5~~~~~~~~~~~~\7~~~~~~~~~~~~~~\8~~~~~~~~~~~~~~10~~~~~~~~\5~~~~~~~~~~~~~~~~~~~~~~~~~~~~~~~~~~~~-|
D|-----------------------------------------------------------------------------------------------|
A|-----------------------------------------------------------------------------------------------|
E|-----------------------------------------------------------------------------------------------|X2

Cm F X2
Back Ground Vocal effects

---------------------------------------
VERSE 2
********
   Cm
If someone comes to steal away my soul
    F
And take away everything I know
    Cm
You shut the windows and call for help
    F
And run away to save yourself


---------------------------------------
CHORUS
*******
Am                     F
    I used to pin your heart
Am                       F
    And I used to be the boy with the gun
Am                     F
    I used to pin your heart
Am                                 F
    But I’m still the boy with the gun


---------------------------------------
SOLO - Am F
*****                                             bend
04:48                                            Higher                      p         slow
e|--b--r-------------|--b--r----------------|--b---b------------|-10~~~~~~~-8-7---|--b--r--------|
B|-10----------------|-10--------------p--8-|-10------10~~~~~~~-|---------------8-|-10-----------|
G|-------9~~~~~~~~~~-|-------9~~~~~~~-9-7---|-------------------|-----------------|-------9~~~~~-|
D|-------------------|----------------------|-------------------|-----------------|--------------|
A|-------------------|----------------------|-------------------|-----------------|--------------|
E|-------------------|----------------------|-------------------|-----------------|--------------|

05:15
e|--------------------|---p------------s-|------------|---p------------s-|--h---------|
B|---------brp------b-|-12-8~~~~~~~~~~~\-|--h--p------|-12-8~~~~~~~~~~~\-|-8-10-------|
G|--s--5-7-7--5-7~~~--|------------------|-9-10-9~~~~-|------------------|------9~~~~-|
D|-5\7----------------|------------------|------------|------------------|------------|
A|--------------------|------------------|------------|------------------|------------|
E|--------------------|------------------|------------|------------------|------------|


e|---p------------s-|---------s-----------b-15--rbp-----b------|--br---whammy-s-|
B|-12-8~~~~~~~~~~~\-|-12-13-13\15--13-15-15----15--13-15--13~~-|-12--10/\/\---\-|
G|------------------|------------------------------------------|----------------|
D|------------------|------------------------------------------|----------------|
A|------------------|------------------------------------------|----------------|
E|------------------|------------------------------------------|----------------|

05:46
e|------------|------s----p----------------------|-----------|
B|-------b--r-|-5-6-6\8--6-5-6-5---5-----b-------|-br--------|
G|---5-7-7----|------------------7---7-5-7-5~~~~-|-4---s-----|
D|-7----------|----------------------------------|----5\7~~~-|
A|------------|----------------------------------|-----------|
E|------------|----------------------------------|-----------|

06:01
e|-------------------------------------------s------------------slow---------------------------|
B|--s--8------8----8----8----8----8----8----8\10-10-brp----------b--8-rb-rb-----rb-------------|
G|-7\9---9~~----9----9----9----9----9----9----------7--5-7-5---5-7----7--7--5-7-7--7-5---5~~~~-|
D|-----------------------------------------------------------7-------------------------7-------|
A|---------------------------------------------------------------------------------------------|
E|---------------------------------------------------------------------------------------------|

06:14
e|--s----s------s------s------p----b----------15--rbp-----p----b------------15--rb-------------|
B|-6\8--8\10--12\13--13\15--15-13-15~~~~~~~~~----15--13-15-13-15~~~~~~~~~~-----15--13-15~~~~~~-|
G|---------------------------------------------------------------------------------------------|
D|---------------------------------------------------------------------------------------------|
A|---------------------------------------------------------------------------------------------|
E|---------------------------------------------------------------------------------------------|

06:26                          s
e|-------------------------|-15\-----|---------s----------|--------b-----|
B|-13-15-13--rbp----b------|------12-|-12-13-13\15--15-15-|-13-15-15~~~~-|
G|----------12--10-12~~~~~-|---------|--------------------|--------------|
D|-------------------------|---------|--------------------|--------------|
A|-------------------------|---------|--------------------|--------------|
E|-------------------------|---------|--------------------|--------------|

     s                                      S  slow bend up
e|-15\17-17~~~~-|-15-17-15----s-------b-15--rb--b--|--|---------brp----b-------|
B|--------------|-----------17\15-13-15----15--15-15-15--13-15-15--13-15~~~~~~-|
G|--------------|--------------------------------------------------------------|
D|--------------|--------------------------------------------------------------|
A|--------------|--------------------------------------------------------------|
E|--------------|--------------------------------------------------------------|


---------------------------------------
PICKING PATTER THROUGH THE SOLO AND OUTRO - Repeat and fade
******************************************
  Am                                              F
e|-----0-----------------|-----0-----------------|-----0-------------------|-----0-------------------|
B|-------1---0-----1-----|-------1---0-----1-----|-------1---3-----1-------|-------1---3-----1-------|
G|---2-----2---2-----2---|---2-----2---2-----2---|---2-----2---2-----2---2-|---2-----2---2-----2---2-|
D|---------------2-----2-|---------------2-----2-|-3-------------3-----3---|-3-------------3-----3---|
A|-0---------------------|-0---------------------|-------------------------|-------------------------|
E|-----------------------|-----------------------|-------------------------|-------------------------|


ENJOY............


--------------------------------------------------------------------------------------------------------------
Track 5                                   Artist - Airbag
                                         *****************
                                        Song - Feeling Less
                                       *********************
                                      Album - Identity (2009)
                                     *************************
                                        Tabbed By - Ayreon77
                                       **********************
--------------------------------------------------------------------------------------------------------------
Tuning = Standard


Play Acoustic All the way through the song


---------------------------------------
Intro - Small Ebow Solo
************************
   Am       G                  Fmaj7        Em
e|----------s----------s-------s-----------s------------s---------------|
B|-17~~~~~~-\12~~~~~~~-\13~~~~-\17~~~~~~~~-\15~~~~~~~~~-\20~~~~~~~~~~~~-|
G|----------------------------------------------------------------------|
D|----------------------------------------------------------------------|
A|----------------------------------------------------------------------|
E|----------------------------------------------------------------------|


---------------------------------------
Verse 1
********
                                       Electric Guitar
          Am                   G       ***************
There’s a pain deep inside and I      [--7--7--7--7--7--7--7--]
                Fmaj7                 [--8--8--8--8--8--8--8--]
I can’t seem to follow you            [--9--9--9--9--9--9--9--]
   Em                                 [--9--9--9--9--9--9--9--]
To where I want to be                 [--7--7--7--7--7--7--7--]
Am                    G               [-----------------------]
  I remember when the snow fell on us
Fmaj7                                  Electric Guitar
  But the closer I get                 ***************
    Em                                [-----------------]
The more I feel like someone else     [------s----------]
                                      [--12--\--7----9--]
                                      [-----------------]
                                      [-----------------]
Electric Guitar                       [-----------------]
***************
01:00
                    Chorus
                    *******
  Em                 Fmaj7                      Am

                    How does it feel without    me
[--0------0---0----|--------0-----------0-----|--------0------------------]
[--0--0-----0---0--|------1---1-------1---1---|------1---1---3-----1------]
[--0---------------|----2-------2---2-------2-|----2-------2---2-----2----]
[--2---------------|--3-----------3-----------|--2---------------2-----2--]
[--2---------------|--------------------------|---------------------------]
[--0---------------|--------------------------|---------------------------]

  Fmaj7                      Am

 How does your life          feel
[--------0-----------0-----|--------0------------------]
[------1---1-------1---1---|------1---1---3-----1------]
[----2-------2---2-------2-|----2-------2---2-----2----]
[--3-----------3-----------|--2---------------2-----2--]
[--------------------------|---------------------------]
[--------------------------|---------------------------]

  Fmaj7                      Dsus2

 How does it feel to be      alone
[--------0-----------0-----|--------0-----------0------]
[------1---1-------1---1---|------3---3-------3---3----]
[----2-------2---2-------2-|----2-------2---2-------2--]
[--3-----------3-----------|--0-----------0------------]
[--------------------------|---------------------------]
[--------------------------|---------------------------]


---------------------------------------
01:28
Small Ebow Solo
****************
   Am       G                  Fmaj7        Em
e|----------s----------s-------s-----------s------------s---------------|
B|-17~~~~~~-\12~~~~~~~-\13~~~~-\17~~~~~~~~-\15~~~~~~~~~-\20~~~~~~~~~~~~-|
G|----------------------------------------------------------------------|
D|----------------------------------------------------------------------|
A|----------------------------------------------------------------------|
E|----------------------------------------------------------------------|


---------------------------------------
Verse 2
********
     Am                G
It’s wearing me down inside
                 Fmaj7
And I can hardly see your face
   Em                             Electric Guitar
No silence left to steal          ***************
Am                               [-----------------]
  I’m not helpless               [------s----------]
      G                          [--12--\--7----9--]
But I think I’m getting close    [-----------------]
Fmaj7                            [-----------------]
  You can stay where you are     [-----------------]
    Em
But please  Not too far away


---------------------------------------
Chorus - Repeat picking Above
******************************

---------------------------------------
Organ
******
Acoustic Chords
****************
D C Fmaj7 Em - X5
03:22
Come in with this picking bit after the drums
  D                         C
[-------0-----------0-----|-------0-----------0-----]
[-----3---3-------3---3---|-----1---1-------1---1---]
[---2-------2---2-------2-|---0-------0---0-------2-]
[-0-----------0-----------|-2-----------2-----------]
[-------------------------|-------------------------]
[-------------------------|-------------------------]

 Fmaj7                     Em
[-------0-----------0-----|-------0-----------0------]
[-----1---1-------1---1---|-----0---0-------0---0----]
[---2-------2---2-------2-|---0-------0---0-------0--]
[-3-----------3-----------|-2-----------2------------]Play
[-------------------------|--------------------------]3
[-------------------------|--------------------------]Times


Acoustic Chords
****************
Fmaj7 Am
Fmaj7 Am
Fmaj7 D   - X2

Come in with this picking bit after the change
 Fmaj7                       Am
[--------0------------------|--------0------------------]
[------1---1---3-----1------|------1---1---3-----1------]
[----2-------2---2-----2----|----2-------2---2-----2----]
[--3---------------3-----3--|--2---------------2-----2--]
[---------------------------|---------------------------]
[---------------------------|---------------------------]

 Fmaj7                       Am
[--------0------------------|--------0------------------]
[------1---1---3-----1------|------1---1---3-----1------]
[----2-------2---2-----2----|----2-------2---2-----2----]
[--3---------------3-----3--|--2---------------2-----2--]
[---------------------------|---------------------------]
[---------------------------|---------------------------]

 Fmaj7                       Dsus2
[--------0------------------|--------0-----------0------]
[------1---1---3-----1------|------3---3-------3---3----]
[----2-------2---2-----2----|----2-------2---2-------2--]
[--3---------------3-----3--|--0-----------0------------]Play
[---------------------------|---------------------------]2
[---------------------------|---------------------------]Times

On the second Dsus2 strum it to end the song.


Enjoy.........



--------------------------------------------------------------------------------------------------------------
Track 6                                Artist - Airbag
                                      *****************
                                       Song - Colours
                                      ****************
                                   Album - Identity (2009)
                                  *************************
                                     Tabbed By - Ayreon77
                                    **********************
--------------------------------------------------------------------------------------------------------------
Tuning = Standard

 b = bend
 s = slide
br = bend release
 x = rake strings
 p = pull off
 h = hammer on
ub = union bend


---------------------------------------
Acoustic Guitar 1
******************

Am  C/G  F  Csus


---------------------------------------
VERSE 1
*********
 Am                            C/G
It’s time for you to fix me
        F                  Csus
 ‘Cause I can’t breathe
    Am                    G
 It wasn’t my intention
               F            C
 To let things go this far


 Am             G
 All the big ideas
       F          C
 I’ve kept inside
   Am                          G       F
 I guess it doesn’t mean that much to you


---------------------------------------
Acoustic Guitar 1
******************
  Am       G       F       F

Clean Guitar 2
**************
Chourus   Play these notes through the chourus
*******   1st picking bit
[------0--------0--------0-------0-------------]
[----------------------------------1--------1--]
[----5--------4--------2-------2----------2----]X5
[-7--------5--------3-------3-----------3------]
[----------------------------------------------]
[----------------------------------------------]

2nd picking bit, play this with the above on the 3rd time around
[--------5--------------3--------------------------------]
[------5---5----------3---3----------1-----1-----1-----1-]
[----5-------5------4-------4------2-----2-----2-----2---]X3
[--7--------------5--------------3-----3-----3-----3-----]
[--------------------------------------------------------]
[--------------------------------------------------------]

(Play Acoustic and picking guitars above through the chourus.)


---------------------------------------
Chourus
*******
 F                  Am  G
Don’t you wanna hear
            F
 Don’t you wanna see
                    Am  G  F
 The colours in my head
                    Am  G  F
 The colours in my head

 Am  G  F


---------------------------------------
Small Solo
***********
(Chords for solo are)

Am  G  F  G  X2
Solo
[------------------------s--------------------------------------]
[-----s----------15----13\12--------s--s------------------------]
[--12-\14-------x------------12---12\14\12----s--------p--------]
[---------14---x----------------------------14\12-10-12-10------]
[--------------rake----------------------------------------12---]
[---------------------------------------------------------------]


[--------------------]
[--------13------12--]
[----s---------------]
[--12\14-----12------]
[--------------------]
[--------------------]


---------------------------------------
VERSE 2
********
   Am                        G
No need to lose you hope now
            F             G
 I owe you all you need
          Am                             G       F     G
 I’m just out of function cold and scared     inside

[--------------------]
[--------13------12--]
[----s---------------]
[--12\14-----12------]
[--------------------]
[--------------------]

       Am                        G
 This fairytale is almost complete
        F
 Like a million lies
        Am                        G        F
 But I guess it doesn’t mean that much to you


---------------------------------------
Change - keyboard comes in.
****************************
D  F X2
D  F  G - (play heavy guitar with other guitar with these last chords)


---------------------------------------
Chourus - Same as above
*******
F                  Am  G
Don’t you wanna hear
            F
 Don’t you wanna see
                    Am  G  F
 The colours in my head
                    Am  G  F
 The colours in my head

 Am  G  F


---------------------------------------
Organ comes in
***************

---------------------------------------
Guitar Solo
************
chords are
Am  G  F  G  (Continue theses chords through solo till the end)

Guitar Solo
************

Section 1
*********
[------------12--------------------10-----------]
[----10--10----10--10-------10--10----10--10----]
[--12--12--12----12--12---12--12--12----12--12--]X2
[-----------------------------------------------]
[-----------------------------------------------]
[-----------------------------------------------]

Section 2
*********
[----15--13--12--10--]
[--------------------]
[--12--12--12--12----]X2
[--------------------]
[--------------------]
[--------------------]

Section 1 x1   Section 2 x2

Section 1 x1   Section 2 x2

Section 1 x1   Section 2 x2

Section 1 x1


[---b--br--------brbr---br--------12----12---12----]
[--13-13--13---12-----12---10---10--10----10---10--]
[--------------------------------------------------]
[--------------------------------------------------]
[--------------------------------------------------]
[--------------------------------------------------]


[---b-rb-----------12---------b------------12------------12--------12----]
[--13----13--13-15----12--10-12----10--10----10--10----10---10---10--12--]
[--------------------------------12--12--12----12----12--------12--------]
[------------------------------------------------------------------------]
[------------------------------------------------------------------------]
[------------------------------------------------------------------------]

                s b r
[---------------\15------------12--------------------b--b--------brbr--]
[--13---13-12----------10--10----10--10----10--10---13-13-13---12------]
[--------------------12--12--12----12----12--12------------------------]
[----------------------------------------------------------------------]
[----------------------------------------------------------------------]
[----------------------------------------------------------------------]

                              ub  ub  ub
[----------------------1--1----------------]
[-------h------s-------1--1---10--10--10s--]
[--12--9-12--12\14-14--2--2---12--12--12\--]
[----------------------3--3----------------]
[----------------------3--3----------------]
[----------------------1--1----------------]

    hold                    hold
[---b-------------br----|---b-----------------12---------|-----15----------]
[--13--13--13---12------|--13--13--13---13-15----12------|--12----13-12----]
[-------------------14--|----------------------------14--|-----------------]
[-----------------------|--------------------------------|-----------------]
[-----------------------|--------------------------------|-----------------]
[-----------------------|--------------------------------|-----------------]


[-----15--------|-----12--------------|------------------]
[--12----13-----|--------13-12-13-15--|-----12-13-12-----]
[-----------14--|--14-----------------|--14----------14--]
[---------------|---------------------|------------------]
[---------------|---------------------|------------------]
[---------------|---------------------|------------------]


[---b--b-------br-----------------]
[--13-13--13--12----p-------------]
[-----------------14-12-14----14--]
[---------------------------------]
[---------------------------------]
[---------------------------------]



ENJOY..............



--------------------------------------------------------------------------------------------------------------
Track 7                                   Artist - Airbag
                                         *****************
                                       Song - How I Wanna Be
                                      ***********************
                                      Album - Identity (2009)
                                     *************************
                                        Tabbed By - Ayreon77
                                       **********************
--------------------------------------------------------------------------------------------------------------
Tuning = Standard

p   = Pull Off
h   = Hammer On
b   = Bend
rb  = Release Bend
rbp = Release Bend Pulloff
br  = Bend Release
brp = Bend Release Pulloff
/   = Slide
UB  = Union Bend


-----------------------------------------
INTRO - Keyboard
******
Am Em F X2


-----------------------------------------
VERSE 1
********
Am      Em         F
I can't    feel my hands
Am              Em   F
It's cold where    I go


-----------------------------------------
CHORUS
*******
          Am            Em      F
And how I wanna be here    with you
      Am            Em      F
How I wanna be just    like you


-----------------------------------------
01:17
ELECTRIC GUITAR - Am Em F
****************
e|--------------------------------------|------------------------------------|
B|--s------s------s-------s-------------|--s------s------s-----------------s-|
G|-9\7-7--7\5-5--5\4-4--4-\5-5--9----12-|-9\7-7--7\5-5--5\4-4--4-5--2----14\-|
D|--------------------------------------|------------------------------------|
A|--------------------------------------|------------------------------------|
E|--------------------------------------|------------------------------------|


e|------------------------------------------|-----------------------------|
B|--s------s------s-------s-------------s---|--s------s------s------------|
G|-9\7-7--7\5-5--5\4-4--4-\5-5--9----9-9\12-|-9\7-7--7\5-5--5\4-4--4-5--2-|
D|------------------------------------------|-----------------------------|
A|------------------------------------------|-----------------------------|
E|------------------------------------------|-----------------------------|


-----------------------------------------
VERSE 2
********
Am
But I don't feel too good inside

My stomach aches and no one listens

This could have been a million dreams

But instead I wake up alone


-----------------------------------------
CHORUS
*******
          Am            Em      F
And how I wanna be here    with you
          Am            Em      F
And how I wanna be just    like you
          Am            Em      F
And how I wanna be here    with you
          Am       Em  F
And how I wanna be


-----------------------------------------
02:53
ELECTRIC GUITAR - Am Em F
****************
e|------------------------------------------|-------------------------------------|
B|--s------s------s-------s-------------s---|--s------s------s-----------------s--|this
G|-9\7-7--7\5-5--5\4-4--4-\5-5--9----9-9\12-|-9\7-7--7\5-5--5\4-4--4-5--2-----2\4-|carries on
D|------------------------------------------|-------------------------------------|through the
A|------------------------------------------|-------------------------------------|solo
E|------------------------------------------|-------------------------------------|


-----------------------------------------
03:09
SOLO - Am Em F
*****
  GUITAR 1
e|-----------------------------------|-------------------------------|---------------------------------|
B|-10---Whammy-----------------------|-10-------b-r------------------|-10------------------------------|
G|-----9/\/\/\/\/\---------5/\/\/\/\-|-----9/\/\/\/\---------5/\/\/\-|-----9/\/\/\/\---------5/\/\/\/\-|
D|-------------------s---------------|-----------------s-5-----------|-----------------s-5-------------|
A|------------------7\-3-------------|----------------7\-3-----------|----------------7\-3-------------|
E|-----------------------------------|-------------------------------|---------------------------------|
 |                                                                   |                                 |
 |                                                                   |GUITAR 2                         |
e|-------------------------------------------------------------------|-------------b-------------------|
B|-------------------------------------------------------------------|--------10--10---/\/\/\----------|
G|-------------------------------------------------------------------|-----9---------------------------|
D|-------------------------------------------------------------------|---------------------------------|
A|-------------------------------------------------------------------|---------------------------------|
E|-------------------------------------------------------------------|---------------------------------|


03:33
  GUITAR 1
e|-----------------------------------|-----------------------------------|-----------------------------------|
B|-10--------------------------------|-10--------------------------------|-10--------------------------------|
G|-----9/\/\/\/\/\---------5/\/\/\/\-|-----9/\/\/\/\/\---------5/\/\/\/\-|-----9/\/\/\/\/\---------5/\/\/\/\-|
D|-------------------s---------------|-------------------s---------------|-------------------s---------------|
A|------------------7\-3-------------|------------------7\-3-------------|------------------7\-3-------------|
E|-----------------------------------|-----------------------------------|-----------------------------------|
 |                                                                                                           |
 |GUITAR 2                                                                                                   |
e|-----------------s-----------------|-----------------------------s-----|-----------------------------------|
B|-8~~~~~~~~~~~~-10\-5-/\/\/\--------|----------------------------5\8-8--|--------------------------------12-|
G|-----------------------------------|-----------------------------------|-----------------------------------|
D|-----------------------------------|-----------------------------------|-----------------------------------|
A|-----------------------------------|-----------------------------------|-----------------------------------|
E|-----------------------------------|-----------------------------------|-----------------------------------|


03:57
  GUITAR 1
e|-----------------------------------|--------------------------------------------------------|
B|-10--------------------------------|-10-----------------------------------------------------|
G|-----9/\/\/\/\/\---------5/\/\/\/\-|-----9/\/\/\/\/\---------5/\/\/\/\/\/\-feedback........-|
D|-------------------s---------------|-------------------s------------------------------------|
A|------------------7\-3-------------|------------------7\-3----------------------------------|
E|-----------------------------------|--------------------------------------------------------|
 |                                                                                            |
 |GUITAR 2                                                                                    |
e|-----------------s-------b---------|--------------------------------s-----------------------|
B|-12~~~~~~~~~~~-12\13-13-13--/\/\/\-|-8~~~~~~~--------------------3-3\5~~~~~~~~~~~~~~~~~~----|
G|-----------------------------------|--------------------------------------------------------|
D|-----------------------------------|--------------------------------------------------------|
A|-----------------------------------|--------------------------------------------------------|
E|-----------------------------------|--------------------------------------------------------|


04:20                                      05:01
e|----------------------------------------|-----------------|-----------------|-----------|------------------|
B|----------------------------------------|-----------------|-----------------|-----------|------------------|
G|----------7--9---------------------7--9-|-----------------|-----------------|-----------|------------------|
D|-7--5---------------7--5-----5----------|-10--9--5---7--2-|-10--9--5---7--2-|-5----7--5-|-5-----2--5-----5-|
A|----------------------------------------|-----------------|-----------------|-----------|------------------|
E|----------------------------------------|-----------------|-----------------|-----------|------------------|



ENJOY............



--------------------------------------------------------------------------------------------------------------
Track 8                                   Artist - Airbag
                                         *****************
                                        Song - Sounds I Hear
                                       **********************
                                       Album - Identity (2009)
                                      *************************
                                        Tabbed By - Ayreon77
                                       **********************
--------------------------------------------------------------------------------------------------------------
Tuning = Standard

    I think theres 4 chords here in the intro, i could not work the last one out
             if anyone can figure it out i,ll add it.
INTRO - Piano - F Dm Am

------------------------------------
VERSE 1
********
        F
If it’s all the same to you
Dm                    Am
   I think I’m giving up
      F
But I won’t go that far
Dm                Am
   Just enough to make you sad


------------------------------------

CHORUS
*******
        C
And the sounds that I hear
Em                      Am
   Are heading down the stairs
    C
The memories we had
Em            Am
   Are left behind

SECTION 1
Play this picking throughout the chorus
  C                       Em                      Am
[-----------------------|-----------------------|-----------------0-----]
[-----1-----3-----1-----|-----0-----3-----0-----|-----1-----3-------1---]
[-------0-----0-----0---|-------0-----0-----0---|-------2-----2-------2-]
[---2-----2-----2-----2-|---2-----2-----2-----2-|---2-----2-----2-------]
[-3---------------------|-----------------------|-0---------------------]
[-----------------------|-0---------------------|-----------------------]


  Am
[-----------------0-----]
[-----1-----3-------1---] play
[-------2-----2-------2-]  2
[---2-----2-----2-------] times
[-0---------------------]
[-----------------------]


------------------------------------
ACOUSTIC Comes in here
*********
F Dm Am X2


------------------------------------
VERSE 2
********
        F
If it’s all the same to you
Dm                 Am
   Many years will pass us by
F
Somewhere in this room
Dm            Am
   We just disappear
       F
And if I only knew
Dm        Am
  Where I am

Heavyish guitar
 Am
[----------------------------]
[-1----1--------1----3---1---]
[-2------2--------2----2---2-]
[-2--2--------2--------------]
[-0---------0----------------]
[----------------------------]


------------------------------------
CHORUS - Play section 1 picking
*******

this is guitar 2 heavish guitar cont... from above

  C   Em      Am
[---|-0------|---0--------|---|-------|---------------------]
[-1-|--0-----|-1--1-----1-|-1-|-0-----|-1----1--------1-1-1-]
[-0-|---0----|-2---2----2-|-0-|--0----|-2------2------2-2-2-]
[-2-|----2---|-2----2---2-|-2-|---2---|-2--2-----2----2-2-2-]
[-3-|-----2--|-0-----0--0-|-3-|----2--|-0----------0--0-0-0-]
[---|------0-|------------|---|-----0-|---------------------]


------------------------------------

        C             Em    Am
And the sounds that I hear

[---|---------|---------------------]
[-1-|-0-----0-|-1--1-1-1--1--1-1--1-]
[-0-|--0----0-|-2--2-2-2--2--2-2--2-]
[-2-|---2---2-|-2--2-2-2--2--2-2--2-]
[-3-|----2--2-|-0--0-0-0--0--0-0--0-]
[---|-----0-0-|---------------------]

           C             Em    Am
I said the sounds that I hear


------------------------------------
SOLO - C Em Am - Pick these chords all the way throughout the solo.
*****
[---------------|----------|-------------|-----5--p-----------------------]
[-b-----8-br--b-|--br------|-------------|-b-5---8-5---rbp----p------s--8-]
[-7-------7-5-7-|-4---s----|--s--5-7-5---|-7---------7-7--5--7-5----7\9---]
[---------------|----5\7-7-|-5\7-5-7-5-7-|-----------------------7--------]
[---------------|----------|-------------|--------------------------------]
[---------------|----------|-------------|--------------------------------]

                                        hold------
                                          |       |
[----------------|---h-p----------|---------|-8-------]
[--s--8---10---8-|-5--6-5---------|-8-br--b-|---8-rb--]
[-7\9---9----9---|--------7-5---5-|---7-5-7-|-----7-5-]
[----------------|------------7---|---------|---------]
[----------------|----------------|---------|---------]
[----------------|----------------|---------|---------]


[--------------------------|-----------------------------------------]
[--s--8----10---8---10---8-|--s--8----10---8---10---8---------brp----]
[-7\9---9-----9---9----9---|-7\9---9-----9---9----9---9-7-----7--5---]
[--------------------------|------------------------------10-------7-]
[--------------------------|-----------------------------------------]
[--------------------------|-----------------------------------------]

                       s
[-----8---7---5---5---5\7---------8----10-------12----12----12----10---8-]
[--s-----------------------s-s--------------s----------------------------]
[-5\7---7---7---7---7-----7\8\9-9---10----10\12----12----12----10----9---]
[------------------------------------------------------------------------]
[------------------------------------------------------------------------]
[------------------------------------------------------------------------]

       s           s        s         s     s
[----10\12-12----12\10----10\8-8-8---8\7---7\5---|-------------------------]
[------------------------------------------------|---------brp------s------]
[-10----------12-------10----------7-----7-----5-|--s--5-7-7--5-7--5\4--s--]
[------------------------------------------------|-5\7-----------------5\7-]
[------------------------------------------------|-------------------------]
[------------------------------------------------|-------------------------]

  br              rake
[-7-------------|---10--br-----|-----------brp-----|-----------------------]
[---8-----br----|--9---12------|--s--8-10-10--8-10-|----------s-s----------]
[-----7-5-4-----|-9-------12-5-|-7\9---------------|--s--5-7-7\9\7-7-------]
[-----------5-5-|--------------|-------------------|-5\7--------------s--5-]
[---------------|--------------|-------------------|-----------------5\7---]
[---------------|--------------|-------------------|-----------------------]


[----------|-----5--p-------------]
[----------|-b-5---8-5---rbp---s--]
[----5-5---|-7---------7-7--5-7\9-]
[-7--5-5-7-|----------------------]
[----------|----------------------]
[----------|----------------------]


[-------------------------------------------------------------------------]
[-8----8---10---8---10---8---10---8---10---8---10---8---10---8-----s---s--]
[----9---9----9---9----9---9----9---9----9---9----9---9----9---9-9-\7-7\5-]
[-------------------------------------------------------------------------]
[-------------------------------------------------------------------------]
[-------------------------------------------------------------------------]

                                  p
[-------------------------|---10-8-7-------|------------|-------]
[--s---s------------------|-8--------8--s--|---brp------|-8---8-]
[-5\4-4\2--s--------------|------------7\9-|-5-7--5-5---|-7---7-]
[---------5\7-5--s-----s--|----------------|----------7-|---7---]
[---------------7\5-3-5\7-|----------------|------------|-------]
[-------------------------|----------------|------------|-------]


[--h-p----------|----h-p----------|-------------|--------------]
[-5-6-5----h----|---5-6-5----h----|-br----------|--------b-----]
[-------7-5-7-5-|-5-------7-5-7-5-|-4--------h--|--s---5-7-5---]
[---------------|-----------------|---5-7-5-5-7-|-5\7--5-7-5-7-]
[---------------|-----------------|-------------|--------------]
[---------------|-----------------|-------------|--------------]


[-------5----p-----------|---------7-----7-----7-----10----------]
[---b-5---5-8-5---rbp--b-|-8---8-----8-----8-----8------8----8---]
[-7-7-----------7-7--5-7-|---9---9-----9-----9-----9------9----9-]
[------------------------|---------------------------------------]
[------------------------|---------------------------------------]
[------------------------|---------------------------------------]


[-----------------]
[--s--------------]
[-9\7---s-s--s----]
[-----10\9/10\9-7-]
[-----------------]
[-----------------]

                                                       s
[-----8-----10------12----12----12------10------8-----8\7-----7-]
[--s-----s-------s------------------s--------s-----s-------s----]
[-7\9---9\10---10\12---12----12---12\10----10\9---9\7-----5\7---]
[---------------------------------------------------------------]
[---------------------------------------------------------------]
[---------------------------------------------------------------]


[------8---7--5------------|--------------------------------5--s-------]
[--s----------------s------|----s---------------br------b-5---8\10-8-8-]
[-5\7---7---7----5-5\7-5---|-5-5\7-7-7--7-5---5-7-5---5-7--------------]
[------------------------7-|-5-5\7-7-7--7-5-7-5-----7------------------]
[--------------------------|-------------------------------------------]
[--------------------------|-------------------------------------------]

        p
[---10-8-7-------|-------------|-----|--h-p----------|--h-p----------]
[-8--------8--s--|---brp---b---|--b--|-5-6-5---------|-5-6-5---------]
[------------7\9-|-5-7--5-5----|-5---|-------7-5-7---|-------7-5-7---]
[----------------|-----------7-|---7-|-------------7-|-------------7-]
[----------------|-------------|-----|---------------|----fade out---]
[----------------|-------------|-----|---------------|---------------]



A nice track, kinda difficult solo. hope someone finds it useful.


Enjoy.........
Suggest correction
Creating personal tab
Creating personal tab
You can edit any tab online and save it as your Personal.

You can edit, replace or remove any tab part or add personal notes – all changes will be seen only by you.

Personal tabs can be accessed anytime from any device, even offline.
Learn more »
Give kudos to tab author, rate the tab!
1 2 3 4 5
comments
print report bad tab
guest
You may want to rate the tab now too:
select rating
Wanna post a correction for this tab? Suggest correction