Oops, an error
Loading. Please wait.

Returned tab

version 1
version 1

Whole song

Interactive

by Airbag
34 views 1 this week
no commentswrite comment
1 2 3 4 5
3 more votes to show rating
add to favorites
×
Save as Personal and add changes to this tab that will be seen only by you. Learn more ›
×
You can save this tab as Personal to edit and correct it or add notes. All changes will be seen only by you. Learn more »
launch autoscroll
font size
0
reset
how to read this tab
guitar tuner
edit
Autoscroll
slow
fast
+/-
esc
set tempo
stop
-------------------------------------------------------------------------
                               Artist - Airbag
                              *****************
                               Song - Returned
                              *****************
                          Album - Disconnected (2016)
                         *****************************
                             Tabbed By - Ayreon77
                            **********************
-------------------------------------------------------------------------
Tuning = Standard


--------------
CPO 4th FRET
--------------


---------------------------
INTRO
******
  C                  Cmaj              F
e|------------------|-----------------|---------------------------------|
B|------1-------1---|-----0-------0---|-----1-------1-------1-------1---|
G|------------------|-----------------|---------------------------------|
D|---2----2---2---2-|---2---2---2---2-|---3---3---3---3---3---3---3---3-|
A|-3--------3-------|-3-------3-------|---------------------------------|
E|------------------|-----------------|-1-------1-------1-------1-------|X3


---------------------------
00:40
VERSE 1 - Continue with the picking
********
               C
Please pick me up
Cmaj            F
    And keep me safe in your arms
          C
I've been down for to long
Cmaj          F
    With no ground beneath my feet


---------------------------
01:06
SMALL SOLO - Continue with Picking Above Also
***********
  GUITAR 1
e|-----------------------------------------------------------------------------------------------|
B|--h------12----12----12------------------------------------h------9----9----9----9----9-----9--|
G|-9-11-11----11----11----11~~~----------------------------11-13-11---11---11---11---11----11----|
D|-----------------------------------------------------------------------------------------------|
A|-----------------------------------------------------------------------------------------------|
E|-----------------------------------------------------------------------------------------------|
 |                                                                                               |
 |GUITAR 2 - Clean Elec Picking                                                                  |
e|-------11----------11----|-------11----------11----|------9---------9----|------9---------9----|
B|----12----12----12----12-|----12----12----12----12-|---10---10---10---10-|---10---10---10---10-|
G|-13----------13----------|-11----------11----------|-9---------9---------|-9---------9---------|
D|-------------------------|-------------------------|---------------------|---------------------|
A|-------------------------|-------------------------|---------------------|---------------------|
E|-------------------------|-------------------------|---------------------|---------------------|


  GUITAR 1
e|--------------------------------------------------s----------------------------------p-----------|
B|------------------------------------------12-12-12\14-14~~~------------------------10-9------s---|
G|----------------------------------------------------------------------------------------11-11\13-|
D|-------------------------------------------------------------------------------------------------|
A|-------------------------------------------------------------------------------------------------|
E|-------------------------------------------------------------------------------------------------|
 |                                                                                                 |
 |GUITAR 2 - Clean Elec Picking                                                                    |
e|-------11----------11----|-------11----------11----|------9---------9----|------9---------9------|
B|----12----12----12----12-|----12----12----12----12-|---10---10---10---10-|---10---10---10---10---|
G|-13----------13----------|-11----------11----------|-9---------9---------|-9---------9-----------|
D|-------------------------|-------------------------|---------------------|-----------------------|
A|-------------------------|-------------------------|---------------------|-----------------------|
E|-------------------------|-------------------------|---------------------|-----------------------|


---------------------------
01:32
VERSE 2 - Continue with the 2 picking guitars
********
      C
And I miss the things you do
Cmaj            F
    And all the sounds you use to make
01:40
e|-11----------------------------------|
B|----12---------------------h--s------|
G|-------13-11-13-13-11~~~--9-11\13~~~-|
D|-------------------------------------|
A|-------------------------------------|
E|-------------------------------------|
       C
Now my heart is wide open
Cmaj                  F
    And I'll found my way back to you
01:55
  C                     Cmaj
e|-----------------------------|
B|-------------s-----12--------|
G|--h---9-11-11\13~~----13~~~~-|
D|-9-11------------------------|
A|-----------------------------|
E|-----------------------------|

              F
I'll found my way back to you

02:07
e|--------------------------|
B|-12------------b----------|
G|----11-9-8-9-8----s-------|
D|-----------------9\11-9~~-|
A|--------------------------|
E|--------------------------|

C Cmaj
              F
I'll found my way

02:18
e|-----------------------------------------|
B|----9----9----9----9----9----9----9----9-|
G|-11---11---11---11---11---11---11---11---|
D|-----------------------------------------|
A|-----------------------------------------|
E|-----------------------------------------|

back to you

02:28
e|-----------------------|
B|-9----9----9------9----|
G|---11---11---11-----11-|
D|-----------------------|
A|-----------------------|
E|-----------------------|

02:34
e|-------------------------|
B|-12----------------------|
G|-11--11-11-11-11---11-11-|
D|-------------------------|
A|-------------------------|
E|-------------------------|

02:40
e|---------------------------------------------------------------------------------|
B|----9----9----9----9----9----9----9----9----9----9----9----9----9----9----9----9-|
G|-11---11---11---11---11---11---11---11---11---11---11---11---11---11---11---11---|
D|---------------------------------------------------------------------------------|
A|---------------------------------------------------------------------------------|
E|---------------------------------------------------------------------------------|

02:53
e|-------------------------------|
B|----9----9----9----9----9----9-|
G|-11---11---11---11---11---11---|
D|-------------------------------|
A|-------------------------------|
E|-------------------------------|


STRUMMING SLIGHTLY - Continue it through the solo
C Cmaj F

-----------------------------
02:57
SOLO
*****                                      03:02
e|-12~~~~Sustain The Note~~~~~~~~~~~~~~~~~----------------------------------------s-|
B|-----------------------------------------12~~~~~~~~~~~~~~~~~~~~~~~~~~~~~~~~~~~~-\-|
G|----------------------------------------------------------------------------------|
D|----------------------------------------------------------------------------------|
A|----------------------------------------------------------------------------------|
E|----------------------------------------------------------------------------------|

03:09
e|-------------------------------|
B|-------12~~~~~~~~~~~~~~~~~~~~~-|
G|-------------------------------|
D|-9~~~~~~~~~~~~~~~~~------------|
A|-------------------------------|
E|-------------------------------|

03:14
e|-12-12-12-12-12-12-12-12-|-11-11-11-11-11-11-11-11-|-------------------------|---------------s----------|
B|-------------------------|-------------------------|-14-14-14-14-14-14-14-14-|-14-14-14-14-14\-12-12-12-|
G|-------------------------|-------------------------|-------------------------|--------------------------|
D|-------------------------|-------------------------|-------------------------|--------------------------|
A|-------------------------|-------------------------|-------------------------|--------------------------|
E|-------------------------|-------------------------|-------------------------|--------------------------|X2


-----------------------------
PICKING
********
03:40
  C                  Cmaj              F
e|------------------|-----------------|---------------------------------|
B|------1-------1---|-----0-------0---|-----1-------1-------1-------1---|
G|------------------|-----------------|---------------------------------|
D|---2----2---2---2-|---2---2---2---2-|---3---3---3---3---3---3---3---3-|
A|-3--------3-------|-3-------3-------|---------------------------------|
E|------------------|-----------------|-1-------1-------1-------1-------|


-----------------------------
03:52
VERSE 3
********
        C
Pick me up
Cmaj               F
    And don't look away
       C
Ask my how I feel
Cmaj                  F
    And I'll found my way back to you


-----------------------------
OUTRO
******                            Repeat And Fade Out.................
  C                  Cmaj              F
e|------------------|-----------------|---------------------------------|
B|------1-------1---|-----0-------0---|-----1-------1-------1-------1---|
G|------------------|-----------------|---------------------------------|
D|---2----2---2---2-|---2---2---2---2-|---3---3---3---3---3---3---3---3-|
A|-3--------3-------|-3-------3-------|---------------------------------|
E|------------------|-----------------|-1-------1-------1-------1-------|



ENJOY.............
Suggest correction
Creating personal tab
Creating personal tab
You can edit any tab online and save it as your Personal.

You can edit, replace or remove any tab part or add personal notes – all changes will be seen only by you.

Personal tabs can be accessed anytime from any device, even offline.
Learn more »
Give kudos to tab author, rate the tab!
1 2 3 4 5
comments
print report bad tab
guest
You may want to rate the tab now too:
select rating
Wanna post a correction for this tab? Suggest correction