Oops, an error
Loading. Please wait.

Safetree chords

by Airbag
61 views 1 this week
no commentswrite comment
1 2 3 4 5
x 4
add to favorites
×
Save as Personal and add changes to this tab that will be seen only by you. Learn more ›
×
You can save this tab as Personal to edit and correct it or add notes. All changes will be seen only by you. Learn more »
launch autoscroll
font size
0
reset
transpose
0
reset
simplify chords
display chords
guitar tuner
edit
Autoscroll
slow
fast
+/-
esc
set tempo
stop
Author
Difficulty
Strumming
There is no strumming pattern for this song yet. and get +5 IQ
------------------------------------------------------------------------------------------------------------
                                          Artist - Airbag 
                                         *****************
                                          Song - Safetree
                                         *****************
                                         Album - EP (2007)    
                                        *******************
                                       Tabbed By - Ayreon77
                                      **********************
------------------------------------------------------------------------------------------------------------
Tuning = Standard



INTRO
******
  Am      F       G       F       Am      F       G       Am
e|-----7-|-----3-|-----3-|-------|-----7-|-----3-|-----3-|-0-|
B|-------|-------|---3---|-----5-|-------|-------|---3---|-1-|
G|---5---|---5---|-0-----|---5---|---5---|---5---|-0-----|-2-|
D|-7-----|-3-----|-------|-3-----|-7-----|-3-----|-------|-2-|
A|-------|-------|-------|-------|-------|-------|-------|---|
E|-------|-------|-------|-------|-------|-------|-------|---|


-----------------------
VERSE 1 - Repeat the picking above
********
     Am               F
So I kneel before her
             G           F
And meet her frozen eyes
         Am        F
I try to run away
       G       F
So she can see
                Am           F
All it takes is one decision
                G        Am
But I've got my own tree


-----------------------
CHORUS - Acoustic Strumming
*******
Dm     Em           Dm        Am
  Keep falling down from here
Dm            Em                  Dm    Am
  But I'm not feeling anything at all
Dm             Em              Dm         Am
  Does it look good from where you stand
Dm          Em             Dm    G
  To see me hanging upside down


-----------------------
BREAK
******
  Am      F       G       F       Am      F       G       Am
e|-----7-|-----3-|-----3-|-------|-----7-|-----3-|-----3-|-0-|
B|-------|-------|---3---|-----5-|-------|-------|---3---|-1-|
G|---5---|---5---|-0-----|---5---|---5---|---5---|-0-----|-2-|
D|-7-----|-3-----|-------|-3-----|-7-----|-3-----|-------|-2-|
A|-------|-------|-------|-------|-------|-------|-------|---|
E|-------|-------|-------|-------|-------|-------|-------|---|


-----------------------
VERSE 2
********
     Am               F 
So I kneel before her
        Em         F
But she turns away
            Am              F
Sometimes I really love her
       Em               F
And we forget the fight
        Am               F
But the water is getting cold
       Em               F
And my heart feels like icy stone


-----------------------
CHORUS
*******
Dm           Em           Dm        Am   
  And I keep falling down from here
Dm        Em                  Dm   Am
  But not feeling anything at all
Dm             Em              Dm         Am
  Does it look good from where you stand
Dm          Em             Dm    Am
  To see me hanging upside down


-----------------------
03:24
BREAK - Picking Through The Slide Solo.
******
  Dm            Em7           Dm/E add2     G
e|-------1-----|-------0-----|-------0-----|-------3-----|
B|-----3---3---|-----3---3---|-----3---3---|-----3---3---|
G|---2-------2-|---0-------0-|---2-------2-|---4-------4-|
D|-0-----------|-2-----------|-3-----------|-5-----------|
A|-------------|-------------|-------------|-------------|
E|-------------|-------------|-------------|-------------|


-----------------------
04:08
SLIDE SOLO 
***********
e|---------------------s------------|----------------s---------------------|
B|--s---s-------s-----8\------------|--s-------s----8\---------s-s---s-----|
G|-7\--5\7~~~~-7\9~~------s---------|-5\7~~~~-7\9~~-----s-----3\5/4~~\-0~~-|
D|-----------------------5\7~~~~~~~-|------------------5\7~~~--------------|
A|----------------------------------|--------------------------------------|
E|----------------------------------|--------------------------------------|

04:31
e|----------------s------------|----------------s---------------------|
B|--s-------s----8\------------|--s-------s----8\---------s-s---s-----|
G|-5\7~~~~-7\9~~-----s---------|-5\7~~~~-7\9~~-----s-----3\5/4~~\-0~~-|
D|------------------3\5~~~~~~~-|------------------5\7~~~--------------|
A|-----------------------------|--------------------------------------|
E|-----------------------------|--------------------------------------|

04:53
e|----------------------------------------------|-------------------------------|
B|---s---------s------s---s----------s--------s-|---s------s----s---s-----------|
G|-10\14~~~~-14\16~~~~\-15\17~~~~~-17\19~~~~19\-|-10\14~~~~\-12-\--3\5--s-------|
D|----------------------------------------------|----------------------3\5~~~~~-|
A|----------------------------------------------|-------------------------------|
E|----------------------------------------------|-------------------------------|
 
05:15                     fading out..................................
e|----------------s------------|----------------s---------------------|
B|--s-------s----8\------------|--s-------s----8\---------s-s---s-----|
G|-5\7~~~~-7\9~~-----s---------|-5\7~~~~-7\9~~-----s-----3\5/4~~\-0~~-|
D|------------------3\5~~~~~~~-|------------------5\7~~~--------------|
A|-----------------------------|--------------------------------------|
E|-----------------------------|--------------------------------------|

05:37....................................................
e|----------------s------------|----------------s--------|
B|--s-------s----8\------------|--s-------s----8\--------|
G|-5\7~~~~-7\9~~-----s---------|-5\7~~~~-7\9~~-----s-----|
D|------------------3\5~~~~~~~-|------------------5\7~~~-|
A|-----------------------------|-------------------------|
E|-----------------------------|-------------------------|


SYNTH
******


ENJOY.........



\ = Slide

            
            
Suggest correction
Creating personal tab
Creating personal tab
You can edit any tab online and save it as your Personal.

You can edit, replace or remove any tab part or add personal notes – all changes will be seen only by you.

Personal tabs can be accessed anytime from any device, even offline.
Learn more »
comments
print report bad tab
guest
You may want to rate the tab now too:
select rating
Wanna post a correction for this tab? Suggest correction