Oops, an error
Loading. Please wait.

Surveillance Part 3 tab

by Airbag
40 views 1 this week
no commentswrite comment
1 2 3 4 5
2 more votes to show rating
add to favorites
×
Save as Personal and add changes to this tab that will be seen only by you. Learn more ›
×
You can save this tab as Personal to edit and correct it or add notes. All changes will be seen only by you. Learn more »
launch autoscroll
font size
0
reset
how to read this tab
guitar tuner
edit
Autoscroll
slow
fast
+/-
esc
set tempo
stop
--------------------------------------------------------------------------
                                          Artist - Airbag
                                         *****************
                                     Song - Surveillance Pt 3
                                    **************************
                             Album - The Greatest Show On Earth (2013)
                            *******************************************
                                        Tabbed By - Ayreon77
                                       **********************
--------------------------------------------------------------------------
Tuning = Standard


-----------------------
06:40 
Guitar Noises


-----------------------
07:43
ELEC PICKING
*************
  Dm
e|---------0-----|---------0-----|---------0-----|---------0-----|\
B|-----3-----3---|-----3-----3---|-----3-----3---|-----3-----3---| \ 
G|---2---2-----2-|---2---2-----2-|---2---2-----2-|---2---2-----2-|  \
D|-0-------------|-0-------------|-0-------------|-0-------------|   \
A|---------------|---------------|---------------|---------------|    \
E|---------------|---------------|---------------|---------------|     \
                                                                        \      
  Bb                                                                    /X4
e|---------1-----|---------1-----|---------1-----|---------1-----|     /
B|-----1-----1---|-----1-----1---|-----1-----1---|-----1-----1---|    /
G|---3---3-----3-|---3---3-----3-|---3---3-----3-|---3---3-----3-|   /
D|-3-------------|-3-------------|-3-------------|-3-------------|  /
A|---------------|---------------|---------------|---------------| /
E|---------------|---------------|---------------|---------------|/


-----------------------
08:53
GRUNDGY GUITAR - I think the E 6th string is tuned to D
***************
e|---right---------------|-------------------------|-----------------------|------------------|
B|----hand---------------|-------------------------|-----------------------|------------------|
G|------mute-------------|-------------------------|-----------------------|-----------0-1~-0-|
D|------1-0--1-0--1-0----|------1-0--1-0--1-0---p--|------1-0--1-0--1-0----|------1-0--0-1~-0-|
A|-1-0--1-0--1-0--1-0--0-|-1-0--1-0--1-0--1-0--3-0-|-1-0--1-0--1-0--1-0--0-|-1-0--1-0--0-0~-0-|
E|-1-0--0-0--0-0--0-0--0-|-1-0--0-0--0-0--0-0------|-1-0--0-0--0-0--0-0--0-|-1-0--0-0---------|


e|---right---------------|-------------------------|-----------------------|------------------|
B|----hand---------------|-------------------------|-----------------------|------------------|
G|------mute-------------|-------------------------|-----------------------|-----------0-1~-0-|
D|------1-0--1-0--1-0----|------1-0--1-0--1-0---p--|------1-0--1-0--1-0----|------1-0--0-1~-0-|
A|-1-0--1-0--1-0--1-0--0-|-1-0--1-0--1-0--1-0--3-0-|-1-0--1-0--1-0--1-0--0-|-1-0--1-0--0-0~-0-|
E|-1-0--0-0--0-0--0-0--0-|-1-0--0-0--0-0--0-0------|-1-0--0-0--0-0--0-0--0-|-1-0--0-0---------|


e|---right---------------|-------------------------|-----------------------|------------------|
B|----hand---------------|-------------------------|-----------------------|------------------|
G|------mute-------------|-------------------------|-----------------------|-----------0-1~-0-|
D|------1-0--1-0--1-0----|------1-0--1-0--1-0---p--|------1-0--1-0--1-0----|------1-0--0-1~-0-|
A|-1-0--1-0--1-0--1-0--0-|-1-0--1-0--1-0--1-0--3-0-|-1-0--1-0--1-0--1-0--0-|-1-0--1-0--0-0~-0-|
E|-1-0--0-0--0-0--0-0--0-|-1-0--0-0--0-0--0-0------|-1-0--0-0--0-0--0-0--0-|-1-0--0-0---------|


09:26 - Same picking as above Am Em Fmaj G
  GUITAR 1
e|---------------------|---------------------------------------------|
B|---------------------|---------------------------------------------|
G|---------------------|---------------------------------------------|
D|---------------------|---------------------------------------------|
A|---------------------|---------------------------------------------|
E|-0~~~-2~~~-3~~~-5~~~-|-----0~~~~~-2~~~~~-3~~~~~---3-5-5----3-5-5---|
 |                                                                   |
 |GUITAR 2              09:34                                        |
e|---------------------|--------------------------------------h------|
B|---------------------|-------------------------------13~~-13-15~~~-|
G|---------------------|---------h-----------------------------------|
D|---------------------|-10~~~-10-12~~~~~~---------------------------|
A|---------------------|---------------------------------------------|
E|---------------------|---------------------------------------------|


  GUITAR 1
e|---------------------|
B|---------------------|
G|---------------------|
D|---------------------|
A|---------------------|
E|-0~~~-2~~~-3~~~-5~~~-|
 |                     |   
 |GUITAR 2             |   
e|----09:47-X3---------|
B|-~~~15-15-15-15-15~~~|
G|---------------------|
D|---------------------|
A|---------------------|
E|---------------------|

  GUITAR 1
e|----------------------------------------------------------------------------------------------|
B|----------------------------------------------------------------------------------------------|
G|----------------------------------------------------------------------------------------------|
D|----------------------------------------------------------------------------------------------|
A|----------------------------------------------------------------------------------------------|
E|-0~~~~~-2~~~~~-3~~~~~-3-5-5---3-5-5---3-5-5---3-5-5---3-5-5---3-5-5---3-5-5---3-5-5----0~~~~~-|
 |                                                                        hold                  |
 |GUITAR 2                                                                bend                  |
e|--------h----------09:53--X3------------s--s--------------------p----b---|-------brp----------|
B|-13~~-13-15~~~~~~~-15-15-15-15-15-15--15\-13\-20--20--20--20--20-18-20--20--20--20--18--------|
G|---------------------------------------------------------------------------------------19~~~~-|
D|----------------------------------------------------------------------------------------------|
A|----------------------------------------------------------------------------------------------|
E|----------------------------------------------------------------------------------------------|


-----------------------
10:07
ATMOSPHERIC KEYBOARD
*********************


-----------------------
10:23
CLEAN REVERB GUITAR
********************
  GUITAR 1                                                               
e|-----------br------|----------------|----------------|
B|-13~~~~~~-12-10~~~-|---p--h--p----b-|--brp-----------|
G|-------------------|-12-10-12-10-12-|-12--10-12~~~~~-|
D|-------------------|----------------|----------------|
A|-------------------|----------------|----------------|
E|-------------------|----------------|----------------|
 |                                                     |
 |GUITAR 2 - Tuned To D                                |
e|-----------------------------------------------------|
B|-----------------------------------------------------|
G|-----------------------------------------------------|
D|-----------------------------------------------------|
A|-----------------------------------------------------|
E|-----------------------------------------------------|

  GUITAR 1         p  h  p         p  h  p    b
e|---s---13~~~-|-15-13-15-13~~-|-15-13-15-13-13-|
B|-13\15-------|---------------|----------------|
G|-------------|---------------|----------------|
D|-------------|---------------|----------------|
A|-------------|---------------|----------------|
E|-------------|---------------|----------------|
 |                                              |
 |Guitar 2 - Tuned To D                         |
e|----------------------------------------------|
B|----------------------------------------------|
G|----------------------------------------------|
D|----------------------------------------------|
A|---3-0----------------------------------------|
E|-0-3-0----------------------------------------|

10:56
  GUITAR 1
    b               11:10
e|-12--------------|---p-------p---------s---|
B|-----------------|-13-10--13--10--13-13\15-|
G|-----------------|-------------------------|
D|-----------------|-------------------------|
A|-----------------|-------------------------|
E|-----------------|-------------------------|
 |                                           |
 |GUITAR 2 - Tuned To D                      | 
e|-----------------|-------------------------|
B|-----------------|-------------------------|
G|-----------------|-------------------------|
D|-----------------|-------------------------|
A|--------h-p------|-------------------------|
E|-------5-6-5-3-0-|-------------------------|


-----------------------
11:39
PICKING
********
  Dm 
  11:39          11:49          11:58          12:08          12:18          12:27
e|-----1---0~~~-|-----1---0~~~-|-----1---0~~~-|-----1---0~~~-|-----1---0~~~-|-----1---0~~~-|
B|--------------|--------------|--------------|--------------|--------------|--------------|
G|---2---2------|---2---2------|---2---2------|---2---2------|---2---2------|---2---2------|
D|-0------------|-0------------|-0------------|-0------------|-0------------|-0------------|
A|--------------|--------------|--------------|--------------|--------------|--------------|
E|--------------|--------------|--------------|--------------|--------------|--------------|
                                                               
                                                               Am  Bb 
  GUITAR 1            12:37          12:47          12:56             
e|-------------------|-----1---0~~~-|-----1---0~~~-|-----1---0~~~-|--|
B|-------------------|--------------|--------------|--------------|--|
G|-------------------|---2---2------|---2---2------|---2---2------|--|
D|GUITAR 2 Tuned to D|-0------------|-0------------|-0------------|--|
A|----s------s-------|--------------|--------------|--------------|--|
E|-0-5\7-10-7\5-0~~~-|--------------|--------------|--------------|--|
 

  Am        Bb        Dm             Bb     Am     Bb
  13:06     p         13:15             13:25   s   s
e|-----3---1-0-------|-----1---0~~~-|--|-----3-3\5-7\10-|
B|---1---------3-1-3-|--------------|--|---1------------|
G|-2-----------------|---2---2------|--|-2--------------|
D|-------------------|-0------------|--|----------------|
A|-------------------|--------------|--|----------------|
E|-------------------|--------------|--|----------------|


-----------------------
13:34
SOLO 1 - D Bb Am Bb
******* slow 
e|---p----b-----|--b-rp-------br----------|---------------------------------------------8----------|
B|-13-10-13~~~~-|-13---10-13~~~---h-----s-|-----------b---13--b------b--r--p----br--h-------p--brs-|
G|--------------|---------------12-14~~~\-|----10-12-12------12~~~~-12---12-10-9---9-10---10-9---\-|
D|--------------|-------------------------|-12-----------------------------------------------------|
A|--------------|-------------------------|--------------------------------------------------------|
E|--------------|-------------------------|--------------------------------------------------------|
                hold        hold
13:52           bend     ..bends...  slow                                         s 
e|-----------b---|----b--|--|--|--|---r---s------|------------s-----------------15\17-17-------|
B|----15-17-17--17---17-17-17-17-17-----15\13-15-|-15-17-18-18\20-20~~~~-20~~~~----------13-13-|
G|-14--------------------------------------------|---------------------------------------------|
D|-----------------------------------------------|---------------------------------------------|
A|-----------------------------------------------|---------------------------------------------|
E|-----------------------------------------------|---------------------------------------------|

14:08
e|---p----b-10--b--b--b-10~~~~~-|-------------------------------------------------------------|
B|-13-10-13----13-13-13---------|---b-----brb-b-rp------------p-------------------------------|
G|------------------------------|-7-7~~~~-7---7---5-7~~~-7~~-7-5------------s-----------------|
D|------------------------------|--------------------------------7~~~~-5-7-5\7~~-7~~-5-7-7~~~-|
A|------------------------------|-------------------------------------------------------------|
E|------------------------------|-------------------------------------------------------------|

14:26                                                                p 
e|------------------------------|-------------10---p----b-10--b-10-13-10-13~~~~-|
B|-------------s---------s------|---p----b-10----13-10-13----13-----------------|
G|--h--5-7-7--7\10-10--10\12-12-|-12-10-12--------------------------------------|
D|-5-7--------------------------|-----------------------------------------------|
A|------------------------------|-----------------------------------------------|
E|------------------------------|-----------------------------------------------|

14:36
    b              rbp                                 p    br
e|-13-13-12-10-12-12--10----10--b------b-----b----10-13-10-12~~~-|
B|-----------------------13----13~~~~-13~~~-13~~~----------------|
G|---------------------------------------------------------------|
D|---------------------------------------------------------------|
A|---------------------------------------------------------------|
E|---------------------------------------------------------------|


e|---p----------b----10~~~~~~--b-rp--------p---------|
B|-13-10-13~~~-13~~~----------13---10~~~-13-10-------|
G|---------------------------------------------------|
D|---------------------------------------------12~~~-|
A|---------------------------------------------------|
E|---------------------------------------------------|

14:53
e|-----------------------------------------------------SLIDE------------------|
B|-------------------------------------------------------s--------------------|
G|---s---------16~~~~-15~~~~-11~~~~~-10~~~-10~~~-10~~~-10\20~~~~~~~~~~~~~~~~~-|
D|-12\15-15~~~----------------------------------------------------------------|
A|----------------------------------------------------------------------------|
E|----------------------------------------------------------------------------|


-----------------------
15:28
OUTRO
******

ENJOY.............

            
            
Suggest correction
Creating personal tab
Creating personal tab
You can edit any tab online and save it as your Personal.

You can edit, replace or remove any tab part or add personal notes – all changes will be seen only by you.

Personal tabs can be accessed anytime from any device, even offline.
Learn more »
Give kudos to tab author, rate the tab!
1 2 3 4 5
comments
print report bad tab
guest
You may want to rate the tab now too:
select rating
Wanna post a correction for this tab? Suggest correction