Oops, an error
Loading. Please wait.

The Bridge tab

by Airbag
40 views 12 this week
no commentswrite comment
1 2 3 4 5
2 more votes to show rating
add to favorites
×
Save as Personal and add changes to this tab that will be seen only by you. Learn more ›
×
You can save this tab as Personal to edit and correct it or add notes. All changes will be seen only by you. Learn more »
launch autoscroll
font size
0
reset
how to read this tab
guitar tuner
edit
Autoscroll
slow
fast
+/-
esc
set tempo
stop
-------------------------------------------------------------------------
                               Artist - Airbag 
                              *****************
                              Song - The Bridge
                             *******************
                        Album - All Rights Removed (2011)
                       ***********************************
                             Tabbed By - Ayreon77
                            **********************
-------------------------------------------------------------------------
Tuning = Standard



INTRO - Clean Electric Picking
******
   Am............................................ Fmaj...........................................
e|-----3-----|-----1-----|-----0-----|-----------|-----3-----|-----1-----|-----0-----|-----1-----|
B|-------1---|-------1---|-------1---|-----3-----|-------1---|-------1---|-------1---|-------1---|
G|---2-----2-|---2-----2-|---2-----2-|---2---2---|---2-----2-|---2-----2-|---2-----2-|---2-----2-|
D|-----------|-----------|-----------|-----------|-3---------|-3---------|-3---------|-3---------|
A|-0---------|-0---------|-0---------|-0---------|-----------|-----------|-----------|-----------|
E|-----------|-----------|-----------|-----------|-----------|-----------|-----------|-----------|



00:14
SMALL SOLO
***********
e|------------------------------------------------|
B|--s--------------s---------s----s---------------|
G|-5\12~~~~-9-10-5\12~~~~-9~~\5--5\12~~~~-9~~~-10-|
D|------------------------------------------------|
A|------------------------------------------------|
E|------------------------------------------------|



----------------------------
VERSE 1 - Play the solo through the verse
********
e|------------------|----------------------|--------------------|------------------------|
B|--s----s-------s--|--s----s--------------|--------------------|--s---------------------|
G|-5\12~~/10~~-9-\5-|-5\12~~/10~~-9~~-10~~-|------------10~~~~~-|-5\12~~~~~~~~-10~~~~~~~-|
D|------------------|----------------------|--------------------|------------------------|
A|------------------|----------------------|--------------------|------------------------|
E|------------------|----------------------|--------------------|------------------------|

00:24
VERSE 1 - Continue with Picking Above and Acoustic Comes in Picking
********
          Am         F
There's a man with a suitcase
       Am                                        F
And he stares through your window. Never letting go.


----------------------------
00:47
SMALL SOLO
***********
   Am                       Fmaj                    Am                      Fmaj
e|-------------------------|-----------------------|-----------------------|-----------------------|
B|-------------------------|---s-------------------|---s-------------------|---s-------------------|
G|-----12~~~~~~-10~~~-9~~~-|-5-\12~~~~~-10~~~-9~~~-|-5-\12~~~~~-10~~~-9~~~-|-5-\12~~~~~-10~~~-9~~~-|
D|-------------------------|-----------------------|-----------------------|-----------------------|
A|-------------------------|-----------------------|-----------------------|-----------------------|
E|-------------------------|-----------------------|-----------------------|-----------------------|


----------------------------
01:10
HEAVY CHORDS - Same Small Solo Through Heavy Chords
*************
Am  Fmaj


----------------------------
01:33
VERSE 2
********  
Am                                        Fmaj
Days turn into years. While no one really cares.
    Am
Too weak and unprepared
                      Fmaj
No ground to take the fall
              Am
But I need to save him. I need to make him understand.
  Am
e|-----0---------0---------0---------0-----|
B|-------1---------1---------1---------1---|
G|---2-----2---2-----2---2-----2---2-----2-|
D|-----------------------------------------|
A|-0---------0---------0---------0---------|
E|-----------------------------------------|
          Fmaj       
That he's not alone. He's not alone.
  Fmaj
e|-----0--------0---------0---------0-----|
B|-------1--------1---------1---------1---|
G|---2--------2-----2---2-----2---2-----2-|
D|-3--------3---------3---------3---------|
A|----------------------------------------|
E|----------------------------------------|


----------------------------
02:08
CHORUS
*******
Am            G              Fmaj
   There's no future in your eyes.
                                 e|--------s--------------------|
                                 B|-8~~-6~~\5-5----------6-5--s-|
                                 G|-------------5-5~~~~------5\-|
                                 D|-----------------------------|
                                 A|-----------------------------|
                                 E|-----------------------------|
Am          G                Fmaj   Dm  
   A secret deep inside your mind. 
                                 e|---------s---------------------|
                                 B|-8~~-6~~-\5-5----s-----8--s----|
                                 G|--------------5-5\7~~~---7\9~~-|
                                 D|-------------------------------|
                                 A|-------------------------------|
                                 E|-------------------------------|      
Am              G             Fmaj
   No fear just another empty lie.
                                 e|--------s--------------------|
                                 B|-8~~-6~~\5-5-----------s-----|
                                 G|-------------5-5~~~~--5\7~~~-|
                                 D|-----------------------------|
                                 A|-----------------------------|
                                 E|-----------------------------|


----------------------------
02:42
VERSE 3 - Electric Chords with Wah Wah
********
   Am                                      Fmaj
So tired of being no one. He's tired of it all.
Am                                                Fmaj
Halfway to somewhere else. Still waiting for your call.
                  Am
Now he's over the railing. He's falling deep beneath the sea.
         Fmaj
But he's not alone. He's not alone.


----------------------------
03:17
CHORUS
*******
Am            G              Fmaj
   There's no future in your eyes.
                                 e|--------s--------------------|
                                 B|-8~~-6~~\5-5----------6-5--s-|
                                 G|-------------5-5~~~~------5\-|
                                 D|-----------------------------|
                                 A|-----------------------------|
                                 E|-----------------------------|
Am          G                Fmaj   Dm  
   A secret deep inside your mind. 
                                 e|---------s---------------------|
                                 B|-8~~-6~~-\5-5----s-----8--s----|
                                 G|--------------5-5\7~~~---7\9~~-|
                                 D|-------------------------------|
                                 A|-------------------------------|
                                 E|-------------------------------|      
Am              G             Fmaj
   No fear just another empty lie.
                                 e|--------s--------------------|
                                 B|-8~~-6~~\5-5-----------s-----|
                                 G|-------------5-5~~~~--5\7~~~-|
                                 D|-----------------------------|
                                 A|-----------------------------|
                                 E|-----------------------------|


----------------------------
03:52
SMALL SOLO
***********
  Am                   G                    Fmaj                     Dm        
e|--------------------|--------------------|------------------------|------------------------|
B|---------8----------|---------8----------|---------8--------------|-------------5----------|
G|--s---5-----5-----5-|--s---7-----7-----7-|-----10------10------10-|---s------7-----7-----7-|
D|-5\7-----------7----|-7\9-----------9----|-10--------------10-----|-10\7--7-----------7----|
A|--------------------|--------------------|------------------------|------------------------|
E|--------------------|--------------------|------------------------|------------------------|

  Am                   G                    F                        Em    G
e|--------------------|--------------------|------------------------|---------|
B|---------8----------|---------8----------|---------8--------------|---------|
G|--s---5-----5-----5-|--s---7-----7-----7-|-----10------10------10-|-9~~~~---|
D|-5\7-----------7----|-7\9-----------9----|-10--------------10-----|---------|
A|--------------------|--------------------|------------------------|---------|
E|--------------------|--------------------|------------------------|---------|

                   
----------------------------
04:18
MAIN SOLO - With Wah wah
**********
  Am                           Fmaj
e|--b-----------p-------b--------rp---------|---p----brbr-----------|
B|-15~~~~~~~~-15-13-15-15~~~~~~~~~-13-15~~~-|-13-12-12----10~~~~~~~-|
G|------------------------------------------|-----------------------|
D|------------------------------------------|-----------------------|
A|------------------------------------------|-----------------------|
E|------------------------------------------|-----------------------|

                                                                                br      br
e|--s--s-----------------------|-----------------------|-----5--s-----8----s-|-10-~~~-|-7-------|
B|-8\10/8~~~--s-----brp--------|--------p--brp---------|-b-5---8\10~~---10-\-|--------|---8---s-|
G|-----------9\7-5-7---5-------|--h--5-7-5-7--5---5~~~-|-7-------------------|--------|-----7-\-|
D|-----------------------7~~~~-|-5-7-5----------7-5~~~-|---------------------|--------|---------|
A|-----------------------------|-----------------------|---------------------|--------|---------|
E|-----------------------------|-----------------------|---------------------|--------|---------|

04:41
Wah Wah     p           p            p           p        p           s     
e|----7--8-8-7---8-8-8-8-7---|-7--8-8-7---8-8-8-8-7-|-7--8-7---8-8-8-8\-|
B|--s-8--8-8---8-8-8-8-8---8-|-8--8-8---8-8-8-8-8---|-8--8---8-8-8-8-8\-|
G|-5\-7--7-7---7-7-7-7-7---7-|-7--7-7---7-7-7-7-7---|-7--7---7-7-7-7-7\-|
D|---------------------------|----------------------|-------------------|
A|---------------------------|----------------------|-------------------|
E|---------------------------|----------------------|-------------------|

04:50
  D         G 
e|-----2---|-----3---|
B|-------3-|-------3-|
G|---2-----|---0-----|
D|-0-------|---------|
A|---------|-3-------|
E|---------|---------|

04:53
           p           p            p           p        p           s 
e|-8-7-7--8-8-7---8-8-8-8-7---|-7--8-8-7---8-8-8-8-7-|-7--8-7---8-8-8-8\-|
B|-8-8-8--8-8---8-8-8-8-8---8-|-8--8-8---8-8-8-8-8---|-8--8---8-8-8-8-8\-|
G|-7-7-7--7-7---7-7-7-7-7---7-|-7--7-7---7-7-7-7-7---|-7--7---7-7-7-7-7\-|
D|----------------------------|----------------------|-------------------|
A|----------------------------|----------------------|-------------------|
E|----------------------------|----------------------|-------------------|

  D         G          Am
e|-----2---|-----3---|-0~~~~~-|
B|-------3-|-------3-|-1~~~~~-|
G|---2-----|---0-----|-2~~~~~-|
D|-0-------|---------|-2~~~~~-|
A|---------|-3-------|-0~~~~~-|
E|---------|---------|--------|


05:09
BASS
*****
----------------------------
05:14
ECHOEY SOLOS * Vol Pedal/Guitar Knob
*************                                      slow release
  Guitar 1                                            the bend
    *                                             b
e|-10~~~~~-8--7--s-------------|-----------------10~~~~~~~~~~~-------------|
B|--------------8\10-8-10~~~~~-|-------------------------------------------|
G|-----------------------------|-------------------------------------------|
D|-----------------------------|-------------------------------------------|
A|-----------------------------|-------------------------------------------|
E|-----------------------------|-------------------------------------------|
 |                                                                         |
 |Guitar 2                                                                 |
e|-----------------------------|-------------------------------------------|
B|-------1--s---s---s----------|---------8~~~~-----------s-----s---5-/-/-/-|
G|-------2-5\7-5\7-5\7~~~~~~~~-|--s---5-----------------5\7-7-7/5~-5-/-/-/-|
D|-------2---------------------|-5\7-------------------------------7-/-/-/-|
A|-----------------------------|-----------------------------------7-/-/-/-|
E|-----------------------------|-------------------------------------------|


05:38                                                        Low & Slow
  Guitar 1    p    s                                             rb
e|-----------8-7~~~\--|-----------------------------|---------|-10-------------------|
B|--------------------|-----------------------------|---------|----------------------|
G|--------------------|-----------------------------|---------|----------------------|
D|--------------------|-----------------------------|---------|----------------------|
A|--------------------|-----------------------------|---------|----------------------|
E|--------------------|-----------------------------|---------|----------------------|
 |
 |Guitar 2
e|--------------------|-----------------------------|---------|----------------------|
B|--------------------|-8---------------------------|-----7---|-----5-/--/-/--/-/--/-|
G|--s---s--5----------|---7--7-7-7--7-7-7--7-7-7----|--s----9-|-----5-/--/-/--/-/--/-|
D|-5\7-5\7---7-7-7~~~-|--------------------------10-|-5\7-----|-----7-/--/-/--/-/--/-|
A|--------------------|-----------------------------|---------|-----7-/--/-/--/-/--/-|
E|--------------------|-----------------------------|---------|----------------------|



ENJOY.............

            
            
Suggest correction
Creating personal tab
Creating personal tab
You can edit any tab online and save it as your Personal.

You can edit, replace or remove any tab part or add personal notes – all changes will be seen only by you.

Personal tabs can be accessed anytime from any device, even offline.
Learn more »
Give kudos to tab author, rate the tab!
1 2 3 4 5
comments
print report bad tab
guest
You may want to rate the tab now too:
select rating
Wanna post a correction for this tab? Suggest correction