Oops, an error
Loading. Please wait.

Blonde Bad And Beautiful bass

version 1
version 1

Whole song

Interactive

4,352 views 1 this week
no commentswrite comment
1 2 3 4 5
x 3
add to favorites
×
Save as Personal and add changes to this tab that will be seen only by you. Learn more ›
×
You can save this tab as Personal to edit and correct it or add notes. All changes will be seen only by you. Learn more »
launch autoscroll
font size
0
reset
guitar tuner
edit
Autoscroll
slow
fast
+/-
esc
set tempo
stop
Author
Difficulty
Tabbed by: Vinny A.
Album: No Guts. No Glory.
Song: Blonde, Bad and Beautiful
Artist: Airbourne
Bassist: Justin Street (Streety)

After a short absence, I've returned with my first Airbourne tab.
I had the chance to see these guys at a pub in Philly on May 1. 
Amazing show, these guys rocked hard. Joel sprayed me with 2 
cans of beer and Streety high fived me and handed me a pick 
after the show...

NOTES: I have D9 listed at points. I did this is just so it looks good 
on the tab...Streety plays this on A14 live. That being said,
on the end riff you could do A14, then hit the open A instead of E5
Hope this helps.

Standard Tuning

Intro (0:22)

   B                                             E   A
G|-----------------|-----------------|-----------------|-----------------|
D|-----------------|-----------------|-----------------|-----------------|
A|-----------------|-----------------|-----------------|-----------------|
E|-7-7-7-7-7-7-7-7-|-7-7-7-7-7-7-7-7-|-7-7-7-7-7-0-0-5-|-----------------|

Verse 1

   B
G|-----------------|-----------------|-----------------|-----------------|
D|-----------------|-----------------|-----------------|-----------------|
A|-----------------|-----------------|-----------------|-----------------|
E|-7-7-7-7-7-7-7-7-|-7-7-7-7-7-7-7-7-|-7-7-7-7-7-7-7-7-|-7-7-7-7-7-7-7-7-|

   B                                                     A     E
G|-----------------|-----------------|-----------------|-----------------|
D|-----------------|-----------------|-----------------|-----------------|
A|-----------------|-----------------|-----------------|-----------------|
E|-7-7-7-7-7-7-7-7-|-7-7-7-7-7-7-7-7-|-7-7-7-7-7-7-7-7-|-5-5-5-0-0-0-0-0-|

   B
G|-----------------|-----------------|-----------------|-----------------|
D|-----------------|-----------------|-----------------|-----------------|
A|-----------------|-----------------|-----------------|-----------------|
E|/7-7-7-7-7-7-7-7-|-7-7-7-7-7-7-7-7-|-7-7-7-7-7-7-7-7-|-7-7-7-7-7-7-7-7-|

   B                                                     A     E     A
G|-----------------|-----------------|-----------------|-----------------|
D|-----------------|-----------------|-----------------|-----------------|
A|-----------------|-----------------|-----------------|-----------------|
E|-7-7-7-7-7-7-7-7-|-7-7-7-7-7-7-7-7-|-7-7-7-7-7-7-7-7-|-5-5-5-0-0-0-5---|


Pre-Chorus

   E                 A     E     F#C#  F#                A           E
G|-----------------|-----------------|-----------------|-----------------|
D|-----------------|-----------------|-----------------|-----------------|
A|-----------------|-----------------|-----------------|-----------------|
E|-0-0-0-0-0-0-0-0-|-5-5-5-0-0-0-2/9-|-2-2-2-2-2-2-2-2-|-5-5-5-5---5-0---|


Chorus

   B       E         A     E       A   B     A B D B     A     G#    A
G|-----------------|-----------------|-----------------|-----------------|
D|-----------------|-----------------|-----------------|-----------------|
A|-----------------|-----------------|-----------5-----|-----------------|
E|-7-7-7-7-0-0-0-0-|-5-5-5-0-0-0-0/5-|-7---7-5-7---7---|-5-5-5-4-----5-5-|

   B       E         A     E       A   B     A B D B     E
G|-----------------|-----------------|-----------------|-----------------|
D|-----------------|-----------------|-----------------|-----------------|
A|-----------------|-----------------|-----------5-----|-----------------|
E|-7-7-7-7-0-0-0-0-|-5-5-5-0-0-0-0/5-|-7---7-5-7---7---|-0---------------|

Verse 2

   B
G|-----------------|-----------------|-----------------|-----------------|
D|-----------------|-----------------|-----------------|-----------------|
A|-----------------|-----------------|-----------------|-----------------|
E|-7-7-7-7-7-7-7-7-|-7-7-7-7-7-7-7-7-|-7-7-7-7-7-7-7-7-|-7-7-7-7-7-7-7-7-|

   B                                                     A     E
G|-----------------|-----------------|-----------------|-----------------|
D|-----------------|-----------------|-----------------|-----------------|
A|-----------------|-----------------|-----------------|-----------------|
E|-7-7-7-7-7-7-7-7-|-7-7-7-7-7-7-7-7-|-7-7-7-7-7-7-7-7-|-5-5-5-0-0-0-0-0-|

   B
G|-----------------|-----------------|-----------------|-----------------|
D|-----------------|-----------------|-----------------|-----------------|
A|-----------------|-----------------|-----------------|-----------------|
E|/7-7-7-7-7-7-7-7-|-7-7-7-7-7-7-7-7-|-7-7-7-7-7-7-7-7-|-7-7-7-7-7-7-7-7-|

   B                                                     A     E     A
G|-----------------|-----------------|-----------------|-----------------|
D|-----------------|-----------------|-----------------|-----------------|
A|-----------------|-----------------|-----------------|-----------------|
E|-7-7-7-7-7-7-7-7-|-7-7-7-7-7-7-7-7-|-7-7-7-7-7-7-7-7-|-5-5-5-0-0-0-5---|


Pre-Chorus

   E                 A     E     F#C#  F#                A           E
G|-----------------|-----------------|-----------------|-----------------|
D|-----------------|-----------------|-----------------|-----------------|
A|-----------------|-----------------|-----------------|-----------------|
E|-0-0-0-0-0-0-0-0-|-5-5-5-0-0-0-2/9-|-2-2-2-2-2-2-2-2-|-5-5-5-5---5-0---|


Chorus

   B       E         A     E       A   B     A B D B     A     G#    A
G|-----------------|-----------------|-----------------|-----------------|
D|-----------------|-----------------|-----------------|-----------------|
A|-----------------|-----------------|-----------5-----|-----------------|
E|-7-7-7-7-0-0-0-0-|-5-5-5-0-0-0-0/5-|-7---7-5-7---7---|-5-5-5-4-----5---|

   B       E         A     E       A   B     A B D B     A     G#    A B
G|-----------------|-----------------|-----------------|-----------------|
D|-----------------|-----------------|-----------------|-----------------|
A|-----------------|-----------------|-----------5-----|-----------------|
E|-7-7-7-7-0-0-0-0-|-5-5-5-0-0-0-0/5-|-7---7-5-7---7---|-5-5-5-4-4-4-5-7-|

Bridge

   B
G|-----------------|-----------------|-----------------|-----------------|
D|-----------------|-----------------|-----------------|-----------------|
A|-----------------|-----------------|-----------------|-----------------|
E|-7-7-7-7-7-7-7-7-|-7-7-7-7-7-7-7-7-|-7-7-7-7-7-7-7-7-|-7-7-7-7-7-7-7-7-|

   B                                                      
G|-----------------|-----------------|-----------------|-----------------|
D|-----------------|-----------------|-----------------|/9-9-9-9-9-9-9\\\|
A|-----------------|-----------------|-----------------|-----------------|
E|-7-7-7-7-7-7-7-7-|-7-7-7-7-7-7-7-7-|-7-7-7-7-7-7-7-7-|-----------------|


Solo Part 1

   B       E         A     E           B       E         A     E       A 
G|-----------------|-----------------|-----------------|-----------------|
D|-----------------|-----------------|-----------------|-----------------|
A|-----------------|-----------------|-----------------|-----------------|
E|-7-7-7-7-0-0-0-0-|-5-5-5-0-0-0-0-0-|-7-7-7-7-0-0-0-0-|-5-5-5-0-0-0-0-5-|

   B       E         A     E           B       E         A     E       A 
G|-----------------|-----------------|-----------------|-----------------|
D|-----------------|-----------------|-----------------|-----------------|
A|-----------------|-----------------|-----------------|-----------------|
E|-7-7-7-7-0-0-0-0-|-5-5-5-0-0-0-0-0-|-7-7-7-7-0-0-0-0-|-5-5-5-0-0-0-0-5-|


Solo Part 2

   B
G|-----------------|-----------------|-----------------|-----------------|
D|-----------------|-----------------|-----------------|-----------------|
A|-----------------|-----------------|-----------------|-----------------|
E|-7---------------|-----------------|-----------------|-----------------|

(Start soft, progressively get louder)             (Slide down slow)
   B
G|-----------------|-----------------|-----------------|-----------------|
D|-----------------|-----------------|/9-9-9-9-9-9-9\\\|-----------------|
A|-----------------|-----------------|-----------------|-----------------|
E|-7-7-7-7-7-7-7-7-|-7-7-7-7-7-7-7-7-|-----------------|-----------------|

Chorus

   B       E         A     E       A   B     A B D B     A     G#    A
G|-----------------|-----------------|-----------------|-----------------|
D|-----------------|-----------------|-----------------|-----------------|
A|-----------------|-----------------|-----------5-----|-----------------|
E|-7-7-7-7-0-0-0-0-|-5-5-5-0-0-0-0/5-|-7---7-5-7---7---|-5-5-5-4-4-4-5---|

   B       E         A     E       A   B     A B D B     A     G#    A B
G|-----------------|-----------------|-----------------|-----------------|
D|-----------------|-----------------|-----------------|-----------------|
A|-----------------|-----------------|-----------5-----|-----------------|
E|-7-7-7-7-0-0-0-0-|-5-5-5-0-0-0-0/5-|-7---7-5-7---7---|-5-5-5-4-4-4-5-7-|

   B       E         A     E       A   B     A B D B     A     G#    A
G|-----------------|-----------------|-----------------|-----------------|
D|-----------------|-----------------|-----------------|-----------------|
A|-----------------|-----------------|-----------5-----|-----------------|
E|-7-7-7-7-0-0-0-0-|-5-5-5-0-0-0-0/5-|-7---7-5-7---7---|-5-5-5-4-4-4-5---|

   B       E         A     E       A   B     A B D B     A     G#    A B
G|-----------------|-----------------|-----------------|-----------------|
D|-----------------|-----------------|-----------------|-----------------|
A|-----------------|-----------------|-----------5-----|-----------------|
E|-7-7-7-7-0-0-0-0-|-5-5-5-0-0-0-0/5-|-7---7-5-7---7---|-5-5-5-4-4-4-5-7-|

Outro

   B
G|-----------------|-----------------|-----------------|-----------------|
D|-9-9-9-9-9-9-9-9-|-9-9-9-9-9-9-9-9-|-9-9-9-9-9-9-9-9-|-9-9-9-9-9-9-9-9-|
A|-----------------|-----------------|-----------------|-----------------|
E|-----------------|-----------------|-----------------|-----------------|

   B                                           A     E
G|-----------------|-----------------|-----------------|-----------------|
D|-9-9-9-9-9-9-9-9-|-9-9-9-9-9-9-9-9-|-9-9-9-9---------|-----------------|
A|-----------------|-----------------|-----------------|-----------------|
E|-----------------|-----------------|---------5-5-5-0-|-----------------|

            
            
Suggest correction
Creating personal tab
Creating personal tab
You can edit any tab online and save it as your Personal.

You can edit, replace or remove any tab part or add personal notes – all changes will be seen only by you.

Personal tabs can be accessed anytime from any device, even offline.
Learn more »
Give kudos to tab author, rate the tab!
1 2 3 4 5
comments
print report bad tab
guest
You may want to rate the tab now too:
select rating
Wanna post a correction for this tab? Suggest correction