Oops, an error
Loading. Please wait.
We have an official Diamond In The Rough tab made by UG professional guitarists. Check out the tab »
×
4,242 views 3 this week
2 commentsread comments
1 2 3 4 5
x 3
add to favorites
×
Save as Personal and add changes to this tab that will be seen only by you. Learn more ›
×
You can save this tab as Personal to edit and correct it or add notes. All changes will be seen only by you. Learn more »
launch autoscroll
font size
0
reset
guitar tuner
edit
Autoscroll
slow
fast
+/-
esc
set tempo
stop
Difficulty
-------------------------------------------------------------------------------
			 DIAMOND IN THE ROUGH - Airbourne
-------------------------------------------------------------------------------

Tabbed By : Roomain


Tuning: EADG



INTRO



G|---------------------------------------------------------------------------|
D|---------------------------------------------------------------------------|  (X2)
A|-5-5-5-------------------------------------------5-5-5-5-5-5-5-5-5-5-------|
E|-------1-1-1-3-3-3-3-3-3-3-3-3-3-----1-1-1-3-3-3---------------------------|



VERSE


G|---------------------------------------------------------------------------|
D|---------------------------------------------------------------------------|
A|--5--5--5--5---------------------------------------------------------------|  (X8)
E|---------------------------------------------------------------------------|

G|---------------------------------------------------------------------------|
D|---------------------------------------------------------------------------|
A|-5-5-5-5-5-5-5-5-----------------------------------------------------------|  (X4)
E|---------------------------------------------------------------------------|

G|---------------------------------------------------------------------------|
D|---------------------------------------------------------------------------|
A|--5--5--5--5---------------------------------------------------------------|  (X4)
E|---------------------------------------------------------------------------|

G|---------------------------------------------------------------------------|
D|---------------------------------------------------------------------------|
A|-5-5-5-5-5-5-5-5-5-5-5-5-5-5-5-5-------------------------------------------|
E|---------------------------------5-5-5-5-5-5-5-5-5-5-5-5-5-5-5-5-----------|



CHORUS



G|---------------------------------------------------------------------------|
D|---------------------------------------------------------------------------|  (X2)
A|-5-5-5-------------------------------------------5-5-5-5-5-5-5-5-5-5-------|
E|-------1-1-1-3-3-3-3-3-3-3-3-3-3-----1-1-1-3-3-3---------------------------|



DURING SOLO PLAY :

G|---------------------------------------------------------------------------|
D|---------------------------------------------------------------------------|
A|-5-5-5-5-5-5-5-5-----------------------------------------------------------|  (X9)
E|---------------------------------------------------------------------------|

G|---------------------------------------------------------------------------|
D|---------------------------------------------------------------------------|
A|---------------------------------------------------------------------------|  (X4)
E|-5-5-5-5-5-5-5-5-----------------------------------------------------------|



LAST CHORUS



G|---------------------------------------------------------------------------|
D|---------------------------------------------------------------------------|  (X3)
A|-5-5-5-------------------------------------------5-5-5-5-5-5-5-5-5-5-------|
E|-------1-1-1-3-3-3-3-3-3-3-3-3-3-----1-1-1-3-3-3---------------------------|


G|---------------------------------------------------------------------------|
D|---------------------------------------------------------------------------|  (X3)
A|-5-5-5-------------------------------------------5-----(LET RING)----------|
E|-------1-1-1-3-3-3-3-3-3-3-3-3-3-----1--1---3--3---------------------------|


ORDER OF THE SONG :

Intro
Verse
Chorus
Verse
Chorus
Solo
Chorus


| /  slide up
| \  slide down
| h  hammer-on
| p  pull-off
| ~  vibrato
| +  harmonic
| x  Mute note
===============================================================================

            
            
Suggest correction
Creating personal tab
Creating personal tab
You can edit any tab online and save it as your Personal.

You can edit, replace or remove any tab part or add personal notes – all changes will be seen only by you.

Personal tabs can be accessed anytime from any device, even offline.
Learn more »
Give kudos to tab author, rate the tab!
1 2 3 4 5
comments
print report bad tab
2 comments total.
0 reply
Phipz 10 Apr 13, 2011 08:59 AM

sounds pretty much like it! :)
but i think you play the refrain like this:

G|---------------------------------------------------------------------------|
D|---------------------------------------------------------------------------|
A|-5-5-5-------3-3-3-3-3-3-3-3-3-3------------------5-5-5-5-5-5-5-5-5-5-------|
E|-------1-1-1--------------------------1-1-1-3-3-3---------------------------|


but i think both versions fit to the song!
five stars!

0 reply
Dr.Cheese 14 Jun 27, 2013 12:32 AM

I think it's in drop D, some of the D notes are an octave lower (the verse definitely is) The notes are right, so this works in standard. :)

guest
Wanna post a correction for this tab? Suggest correction