Oops, an error
Loading. Please wait.

No Way But The Hard Way bass

version 1
version 1

Whole song

Interactive

3,195 views 1 this week
no commentswrite comment
1 2 3 4 5
1 last vote to show rating
add to favorites
×
Save as Personal and add changes to this tab that will be seen only by you. Learn more ›
×
You can save this tab as Personal to edit and correct it or add notes. All changes will be seen only by you. Learn more »
launch autoscroll
font size
0
reset
guitar tuner
edit
Autoscroll
slow
fast
+/-
esc
set tempo
stop
Author
Difficulty
I Made This Tab Because It's A Great Song And No One Else Has Made One Yet So. I Learnt 
By Ear So Sorry If Its Wrong.

INTRO
G------------------|
D------------------|
A--5---------------|
E-5-5--3-0---0-3-0-|

(VERSE)
G----------------------  G----------------------------|
D----------------------  D----------------------------|
A--7--5------5---------  A--7--5------5---------------|
E---7--5--(5)-5--3-0-(0) E---7--5--(5)-5--3-0---0-3-0-|

(PRE-CHORUS)
G------------------------------------------|
D------------------------------------------|
A--------55---------------------55---------|
E-3333333--5555555-0-3-0-3333333--77777777-|

(CHORUS)
G----------------------------------------|
D----------------------------------------|
A-777------555-------------555555-5------|
E----77777----55550-3~--000--------5-3-0-|

G------------------------------------------------|
D------------------------------------------------|
A-777------555-------------555555-5--------------|
E----77777----55550-3~--000--------5-3-0---0-3-0-|

"Hey! Hey!I'm Gonna Roll On"
G------------------------|
D------------------------|
A------------------------|
E-55555555(x4)77777777(x4)

(SOLO)
Play Chorus x1
Play Pre-Chorus x1
Then:
G-------|
D-------|
A-5h7\--
E-------

"When The Troops Are Down"
G-------------------|
D-------------------|
A-------------------|
E-000000000000000000

This Goes On For A Bit Getting Gradually Louder

(OUTRO)
Part 1
G-------------------------------|
D-------------------------------|
A--7--5-----------555555-5------|
E---7--5--0-3--000--------5-3-0-|

G------------------------------------------------|
D------------------------------------------------|
A-777------555-------------555555-5--------------|
E----77777----55550-3~--000--------5-3-0---0-3-0-|

G------------------|
D------------------|
A-777------555-----|
E----77777----5555-|

Order: Intro x1
       Verse x2
       Pre-Chorus x1
       Chorus
       Verse x2
       Pre-Chorus x1
       Chorus x1
       "Hey Hey!" x1
       Solo x1
       "When The Troops Are Down" x1
       Outro x1
       Chorus(first Part) x1

Hope This Helped :) Rate And Tell Me If I've Made Any Mistakes. Thanks

            
            
Suggest correction
Creating personal tab
Creating personal tab
You can edit any tab online and save it as your Personal.

You can edit, replace or remove any tab part or add personal notes – all changes will be seen only by you.

Personal tabs can be accessed anytime from any device, even offline.
Learn more »
Give kudos to tab author, rate the tab!
1 2 3 4 5
comments
print report bad tab
guest
You may want to rate the tab now too:
select rating
Wanna post a correction for this tab? Suggest correction