Oops, an error
Loading. Please wait.
We have an official Runnin Wild tab made by UG professional guitarists. Check out the tab »
×
89,144 views 48 this week
18 commentsread comments
1 2 3 4 5
x 23
add to favorites
×
Save as Personal and add changes to this tab that will be seen only by you. Learn more ›
×
You can save this tab as Personal to edit and correct it or add notes. All changes will be seen only by you. Learn more »
launch autoscroll
font size
0
reset
how to read this tab
guitar tuner
backing track
0:00
0:00
edit
Autoscroll
slow
fast
+/-
esc
set tempo
stop
Author
Difficulty
Song name: Runnin' Wild
Band name: Airbourne 
Tabbed by: Eski

Airbourne Rocks! this is the whole song tabbed and in order.

[Tuning]
Gtr1: Standard (E,A,D,G,B,e)
Gtr2: Standard (E,A,D,G,B,e)

[Intro] (Gtr2)             (pm throughout)
 .....................................................................|
e|---------------------------------------------------------------------|
B|---------------------------------------------------------------------|
G|---------------------------------------------------------------------|
D|---------------------------------------------------------------------|
A|---------------------------------------------------------------------|
E|-1-1-1-1-1-1-1-1-1-1-1-1-1-1-1-1-1-1-1-1-1-1-1-1-1-1-1-1-1-1-1-1-1-1-|(repeat as needed)

[Intro] (Gtr1)
    D#5                      F5          D#5                      F5
e|---------------------------------------------------------------------|
B|---------------------------------------------------------------------|
G|-8-8-8--------------------------------8-8-8---------------------10---|
D|-8-8-8---------3-----3------3---------8-8-8--------3-----3------10---|
A|-6-6-6---------1-6-3-1-6-3--3---------6-6-6--------1-6-3-1-6-3--8----|
E|-----------------4-1---4-1--1------------------------4-1---4-1-------|
   
   pm    pm   pm                                     pm    pm  pm
   ...   ...   .    D#5                       F5     ...   ...  .
e|---------------------------------------------------------------------|
B|---------------------------------------------------------------------|
G|-----------------8-8-8-----------------------------------------------|
D|-----3-----3---3-8-8-8---------3-----3------3----------3----3---3----|
A|-----3-----3---3-6-6-6---------1-6-3-1-6-3--3----------3----3---3----|
E|-1-1---1-1---1-------------------4-1---4-1--1-------1-1--1-1--1------|
                                       pm     pm

    D#5                       F5       ...    ...
e|---------------------------------------------------------|
B|---------------------------------------------------------|
G|-8-8-8----------------------10---------------------------|
D|-8-8-8---------3-----3------10------------3-----3--------|
A|-6-6-6---------1-6-3-1-6-3--8-------------3-----3---1----|
E|-----------------4-1---4-1------------1-1---1-1---1---4--|

[Verse]
  pm   pm         pm   pm         pm   pm         pm   pm
   .   ...         .   ...         .   ...         .   ...
e|--------------------------------------------------------------------|
B|--------------------------------------------------------------------|
G|--------------------------------------------------------------------|
D|---3-----3---8\6---3-----3---8\6---3-----3---8\6---3-----3---8\6----|
A|---3-----3---8\6---3-----3---8\6---3-----3---8\6---3-----3---8\6----|
E|-1-1-1-1-1-1-6\4-1-1-1-1-1-1-6\4-1-1-1-1-1-1-6\4-1-1-1-1-1-1-6\4----|2x

Cry me a river...
Refrain:              pm   pm         pm   pm         
  D#5        F5        .   ...         .   ...           D#5        F5
e|--------------------------------------------------------------------|
B|--------------------------------------------------------------------|
G|-8---------3--------------------------------------------8---------3-|
D|-8---------3-----------3-----3---8\6---3-----3---8\6----8---------3-|
A|-6---------1-----------3-----3---8\6---3-----3---8\6----6---------1-|
E|---------------------1-1-1-1-1-1-6\4-1-1-1-1-1-1-6\4----------------|

 I gotta get away...       
          C5               
e|-------------------------|
B|-------------------------|
G|-5--5--5-5-5-5-5-5-5-5---|
D|-5--5--5-5-5-5-5-5-5-5-3-|
A|-3--3--3-3-3-3-3-3-3-3-3-|
E|-----------------------1-|
   
[Chorus] Runnin...
    F5                      D#5
e|------------------------------------------------|
B|------------------------------------------------|
G|-10-10--------------------8-8-------------------|
D|-10-10-------3-----3------8-8-------3-----3-----|
A|-8--8--------1-6-3-1-6-3--6-6-------1-6-3-1-6-3-|
E|---------------4-1---4-1--------------4-1---4-1-|2x

[Verse]
  pm   pm         pm   pm         pm   pm         pm   pm
   .   ...         .   ...         .   ...         .   ...
e|--------------------------------------------------------------------|
B|--------------------------------------------------------------------|
G|--------------------------------------------------------------------|
D|---3-----3---8\6---3-----3---8\6---3-----3---8\6---3-----3---8\6----|
A|---3-----3---8\6---3-----3---8\6---3-----3---8\6---3-----3---8\6----|
E|-1-1-1-1-1-1-6\4-1-1-1-1-1-1-6\4-1-1-1-1-1-1-6\4-1-1-1-1-1-1-6\4----|2x

Cry me a river...
Refrain:              pm   pm         pm   pm         
  D#5        F5        .   ...         .   ...           D#5        F5
e|--------------------------------------------------------------------|
B|--------------------------------------------------------------------|
G|-8---------3--------------------------------------------8---------3-|
D|-8---------3-----------3-----3---8\6---3-----3---8\6----8---------3-|
A|-6---------1-----------3-----3---8\6---3-----3---8\6----6---------1-|
E|---------------------1-1-1-1-1-1-6\4-1-1-1-1-1-1-6\4----------------|

 I gotta get away...       
          C5               
e|-------------------------|
B|-------------------------|
G|-5--5--5-5-5-5-5-5-5-5---|
D|-5--5--5-5-5-5-5-5-5-5-3-|
A|-3--3--3-3-3-3-3-3-3-3-3-|
E|-----------------------1-|

Chorus: Runnin...
    F5                      D#5
e|------------------------------------------------|
B|------------------------------------------------|
G|-10-10--------------------8-8-------------------|
D|-10-10-------3-----3------8-8-------3-----3-----|
A|-8--8--------1-6-3-1-6-3--6-6-------1-6-3-1-6-3-|
E|---------------4-1---4-1--------------4-1---4-1-|4x

[Solo](Gtr1)
Hey hey hey!          Hey Hey Hey!              
e|----------10-8----------------------------------|
B|----------11-9----------------------------------|
G|---------------10~~~------------10-8------------|
D|-------------------------------------10-8-6~~-3-|
A|------------------------------------------------|
E|------------------------------------------------|

Hey hey hey!        Hey Hey Hey                   
e|-------------------------------------12b13r~~---|
B|------------------------------12b13r------------|
G|------------------------------13b14r------------|
D|------------------------------------------------|
A|----------6-8-8~~~------------------------------|
E|------------------------------------------------|

[Solo]  (Gtr2)
Hey Hey Hey!
    F5                   F5
e|------------------------------------------|
B|------------------------------------------|
G|------------------------------------------|
D|-3-3-3---3-----3------3-3-3---3-----3-----|
A|-3-3-3---1-6-3-1-6-3--3-3-3---1-6-3-1-6-3-|
E|-1-1-1-----4-1---4-1--1-1-1-----4-1---4-1-|4x

    D#5                      F5          D#5                      F5
e|---------------------------------------------------------------------|
B|---------------------------------------------------------------------|
G|-8-8-8--------------------------------8-8-8---------------------10---|
D|-8-8-8---------3-----3------3---------8-8-8--------3-----3------10---|
A|-6-6-6---------1-6-3-1-6-3--3---------6-6-6--------1-6-3-1-6-3--8----|
E|-----------------4-1---4-1--1------------------------4-1---4-1-------|

No I wont turn around... 
  pm   pm         pm   pm         pm   pm         pm   pm
   .   ...         .   ...         .   ...         .   ...
e|--------------------------------------------------------------------|
B|--------------------------------------------------------------------|
G|------------------------------------------------------------------8-|
D|---3-----3---8\6---3-----3---8\6---3-----3---8\6---3-----3---8\6--8-|
A|---3-----3---8\6---3-----3---8\6---3-----3---8\6---3-----3---8\6--6-|
E|-1-1-1-1-1-1-6\4-1-1-1-1-1-1-6\4-1-1-1-1-1-1-6\4-1-1-1-1-1-1-6\4----|


Cry me a river...
[Refrain]             pm   pm         pm   pm         
  D#5        F5        .   ...         .   ...           D#5        F5
e|--------------------------------------------------------------------|
B|--------------------------------------------------------------------|
G|-8---------3--------------------------------------------8---------3-|
D|-8---------3-----------3-----3---8\6---3-----3---8\6----8---------3-|
A|-6---------1-----------3-----3---8\6---3-----3---8\6----6---------1-|
E|---------------------1-1-1-1-1-1-6\4-1-1-1-1-1-1-6\4----------------|

 I gotta get away...       
          C5               
e|-------------------------|
B|-------------------------|
G|-5--5--5-5-5-5-5-5-5-5---|
D|-5--5--5-5-5-5-5-5-5-5-3-|
A|-3--3--3-3-3-3-3-3-3-3-3-|
E|-----------------------1-|

[Chorus] Runnin...
    F5                      D#5
e|------------------------------------------------|
B|------------------------------------------------|
G|-10-10--------------------8-8-------------------|
D|-10-10-------3-----3------8-8-------3-----3-----|
A|-8--8--------1-6-3-1-6-3--6-6-------1-6-3-1-6-3-|
E|---------------4-1---4-1--------------4-1---4-1-|8x

[Outro]
Hey Hey Hey!....
    F5      A#5 D#5      F5           A#5
e|--------------------------------------------|
B|--------------------------------------------|
G|----------8---------------------8-----------|
D|-3-3-3--3-8-6-8-8-6-3--3-3-3--3-8-6-8-8-6-3-|
A|-3-3-3--3-6-6-8-8-6-3--3-3-3--3-6-6-8-8-6-3-|
E|-1-1-1--1---4-6-6-4-1--1-1-1--1---4-6-6-4-1-|4x

   F5
e|-----|
B|-----|
G|-----|
D|-3-3-|
A|-3-3-|
E|-1-1-|


************************************

| pm palm mute
| /  slide up
| \  slide down
| h  hammer-on
| p  pull-off
| ~  vibrato
| +  harmonic
| x  Mute note
| b  Bend
| r  Release bend

************************************

            
            
Suggest correction
Creating personal tab
Creating personal tab
You can edit any tab online and save it as your Personal.

You can edit, replace or remove any tab part or add personal notes – all changes will be seen only by you.

Personal tabs can be accessed anytime from any device, even offline.
Learn more »
comments
print report bad tab
18 comments total. Showing first comments.
0 reply
andy_thomas 141 Sep 08, 2007 04:13 PM

excellent. 5 stars

+2 reply
gohmanlespaul89 10 Oct 11, 2007 12:18 AM

this is sweet. airbourne are the next ACDC

0 reply
Acadaca123 10 Oct 30, 2007 01:08 AM

yeah they are fat city sounds so much like ac/dc the first time i heard it i thought it was acadaca

guest
You may want to rate the tab now too:
select rating
Wanna post a correction for this tab? Suggest correction