Oops, an error
Loading. Please wait.

Stand Up For Rock N Roll bass

version 1
version 1

Whole song

Interactive

5,175 views 3 this week
no commentswrite comment
1 2 3 4 5
1 last vote to show rating
add to favorites
×
Save as Personal and add changes to this tab that will be seen only by you. Learn more ›
×
You can save this tab as Personal to edit and correct it or add notes. All changes will be seen only by you. Learn more »
launch autoscroll
font size
0
reset
guitar tuner
edit
Autoscroll
slow
fast
+/-
esc
set tempo
stop
Author
Difficulty
Stand up for rock n roll bass tab by Airbourne

Tabbed by Jordy Smith

Pretty sure this is correct :)

Intro
G|-------------------------------------------------------------------|
D|-------------------------------------------------------------------|
A|--2-----------------2----------------------------------------------|
E|-----------3-----------------3--------0----------------------------|

G|-------------------------------------------------------------------|
D|-------------------------------------------------------------------|
A|-----------------------------2--2--2--2--2--2--2--2----------------|
E|--3--------0--------3----------------------------------------------|

G|---------------------------------------------------------------------------|
D|---------------------------------------------------------------------------|
A|--------------------------2--2--2--2--2--2--2--2---------------------------|
E|--3--3--3--3--3--3--3--3--------------------------3--3--3--3--3--3--3--3---|

G|---------------------------------------------------------------------------|
D|---------------------------------------------------------------------------|
A|---------------------------------------------------------------------------|
E|--0--0--0--0--0--0--0--0--3--3--3--3--3--3--3--3--0--0--0--0--0--0--0--0---|

G|-------------------------------------------------------------------|
D|-------------------------------------------------------------------|
A|--------------------------2----------------------------------------|
E|--3--3--3--3--3--3--3--3-------------------------------------------|

Pre solo

G|-------------------------------------------------------------------|
D|-------------------------------------------------------------------|
A|--2----2--2--2--2--2--2--2----2--2-----2----0--2-------------------|
E|------------------------------------0------------------------------|

G|-------------------------------------------------------------------|
D|-------------------------------------------------------------------|
A|--2--2--2--2--2--2--2----5---------------2----2--2--2--2--2--2--2--|
E|------------------------------5--0----5----------------------------|

G|-------------------------------------------------------------------|
D|-------------------------------------------------------------------|
A|--2--2-----2----0--2----2--2--2--2--2--2--2----5---------------2---|
E|--------0-------------------------------------------5--0----5------|

Guitar solo

G|-------------------------------------------------------------------|
D|-------------------------------------------------------------------|
A|--2--2--2--2--2--2--2----2--2-----2----0----2----------------------|
E|-------------------------------0-----------------------------------|

G|-------------------------------------------------------------------|
D|-------------------------------------------------------------------|
A|--2--2--2--2--2--2--2----5--------------2--------------------------|
E|-----------------------------5--0----5-----------------------------|

G|-----------------------------------------------------------------------------------|
D|-----------------------------------------------------------------------------------|
A|--2--2--2--2--2--2--2----2--2-----2--0--2----2--2--2--2--2--2--2----5-----------2--|
E|-------------------------------0---------------------------------------5--0--5-----|

Verse

G|-----------------------------------------------------------------------------------|
D|-----------------------------------------------------------------------------------|
A|--2--2--2--2--2--2--2----2--2-----2--0--2----2--2--2--2--2--2--2-----5-----------2-|
E|-------------------------------0----------------------------------------5--0--5----|

G|-----------------------------------------------------------------------------------|
D|-----------------------------------------------------------------------------------|
A|--2--2--2--2--2--2--2----2--2-----2--0--2----2--2--2--2--2--2--2-----5-----------2-|
E|-------------------------------0----------------------------------------5--0--5----|

G|-----------------------------------------------------------------------------------|
D|-----------------------------------------------------------------------------------|
A|--2--2--2--2--2--2--2----2--2-----2--0--2----2--2--2--2--2--2--2-----5-----------2-|
E|-------------------------------0----------------------------------------5--0--5----|

G|-----------------------------------------------------------------------------------|
D|-----------------------------------------------------------------------------------|
A|--2--2--2--2--2--2--2----2--2-----2--0--2----2--2--2--2--2--2--2-----5-----------2-|
E|-------------------------------0----------------------------------------5--0--5----|

Pre chorus

G|--------------------------------------------------------------------|
D|--------------------------------------------------------------------|
A|--2--2--2--2--2--2--0----0--0--0--0--0--0--5------------------------|
E|--------------------------------------------------------------------|

G|--------------------------------------------------------------------|
D|--------------------------------------------------------------------|
A|--5--5--5--5--5--5-------------------------2----2--2--2--2--2--2--0-|
E|--------------------0----0--0--0--0--0--5---------------------------|

G|--------------------------------------------------------------------|
D|--------------------------------------------------------------------|
A|--0--0--0--0--0--0--5----5--5--5--5--5--5--5----5-----------2-------|
E|---------------------------------------------------5--0--5----------|

Chorus

G|-----------------------------------------------------------------------------------|
D|-----------------------------------------------------------------------------------|
A|--2--2--2--2--2--2--2----2--2-----2--0--2----2--2--2--2--2--2--2-----5-----------2-|
E|-------------------------------0----------------------------------------5--0--5----|

G|-----------------------------------------------------------------------------------|
D|-----------------------------------------------------------------------------------|
A|--2--2--2--2--2--2--2----2--2-----2--0--2----2--2--2--2--2--2--2-----5-----------2-|
E|-------------------------------0----------------------------------------5--0--5----|

Verse 

G|-----------------------------------------------------------------------------------|
D|-----------------------------------------------------------------------------------|
A|--2--2--2--2--2--2--2----2--2-----2--0--2----2--2--2--2--2--2--2-----5-----------2-|
E|-------------------------------0----------------------------------------5--0--5----|

G|-----------------------------------------------------------------------------------|
D|-----------------------------------------------------------------------------------|
A|--2--2--2--2--2--2--2----2--2-----2--0--2----2--2--2--2--2--2--2-----5-----------2-|
E|-------------------------------0----------------------------------------5--0--5----|

G|-----------------------------------------------------------------------------------|
D|-----------------------------------------------------------------------------------|
A|--2--2--2--2--2--2--2----2--2-----2--0--2----2--2--2--2--2--2--2-----5-----------2-|
E|-------------------------------0----------------------------------------5--0--5----|

G|-----------------------------------------------------------------------------------|
D|-----------------------------------------------------------------------------------|
A|--2--2--2--2--2--2--2----2--2-----2--0--2----2--2--2--2--2--2--2-----5-----------2-|
E|-------------------------------0----------------------------------------5--0--5----|

Pre chorus

G|--------------------------------------------------------------------|
D|--------------------------------------------------------------------|
A|--2--2--2--2--2--2--0----0--0--0--0--0--0--5------------------------|
E|--------------------------------------------------------------------|

G|--------------------------------------------------------------------|
D|--------------------------------------------------------------------|
A|--5--5--5--5--5--5-------------------------2----2--2--2--2--2--2--0-|
E|--------------------0----0--0--0--0--0--5---------------------------|

G|--------------------------------------------------------------------|
D|--------------------------------------------------------------------|
A|--0--0--0--0--0--0--5----5--5--5--5--5--5--5----5-----------2-------|
E|---------------------------------------------------5--0--5----------|

Chorus

G|-----------------------------------------------------------------------------------|
D|-----------------------------------------------------------------------------------|
A|--2--2--2--2--2--2--2----2--2-----2--0--2----2--2--2--2--2--2--2-----5-----------2-|
E|-------------------------------0----------------------------------------5--0--5----|

G|-----------------------------------------------------------------------------------|
D|-----------------------------------------------------------------------------------|
A|--2--2--2--2--2--2--2----2--2-----2--0--2----2--2--2--2--2--2--2-----5-----------2-|
E|-------------------------------0----------------------------------------5--0--5----|

Bridge

G|-------------------------------------------------------------------|
D|-------------------------------------------------------------------|
A|-------------------------------------------------------------------|
E|--2--2--2--2--2--2--5----5--5--0--0--0--0--2-----------------------|

G|-------------------------------------------------------------------|
D|-------------------------------------------------------------------|
A|-------------------------------------------------------------------|
E|--2--2--2--2--2--2--5----5--5--0--0--0--0--2-----------------------|

G|-------------------------------------------------------------------|
D|-------------------------------------------------------------------|
A|-------------------------------------------------------------------|
E|--2--2--2--2--2--2--5----5--5--0--0--0--0--2-----------------------|

G|-------------------------------------------------------------------|
D|-------------------------------------------------------------------|
A|-------------------------------------------2-----------------------|
E|--2--2--2--2--2--2--5----5--5--0--0--0--0--------------------------|

Guitar solo

G|-------------------------------------------------------------------|
D|-------------------------------------------------------------------|
A|--2----2--2--2--2--2--2--2----2--2-----2----0--2-------------------|
E|------------------------------------0------------------------------|

G|-------------------------------------------------------------------|
D|-------------------------------------------------------------------|
A|--2--2--2--2--2--2--2----5---------------2-------------------------|
E|------------------------------5--0----5----------------------------|

G|-------------------------------------------------------------------|
D|-------------------------------------------------------------------|
A|--2----2--2--2--2--2--2--2----2--2-----2----0--2-------------------|
E|------------------------------------0------------------------------|

G|-------------------------------------------------------------------|
D|-------------------------------------------------------------------|
A|--2--2--2--2--2--2--2----5---------------2-------------------------|
E|------------------------------5--0----5----------------------------|

G|-------------------------------------------------------------------|
D|-------------------------------------------------------------------|
A|--2--2--2--2--2--2--0----0--0--0--0--0--0--5-----------------------|
E|-------------------------------------------------------------------|

G|-------------------------------------------------------------------|
D|-------------------------------------------------------------------|
A|--5--5--5--5--5--5-------------------------2-----------------------|
E|--------------------0----0--0--0--0--0--5--------------------------|

Bridge

G|-------------------------------------------------------------------|
D|-------------------------------------------------------------------|
A|--2--2--2--2--2--2--0----0--0--0--0--0--0--5-----------------------|
E|-------------------------------------------------------------------|

G|-------------------------------------------------------------------|
D|-------------------------------------------------------------------|
A|--5--5--5--5--5--5--5----5-------------0---------------------------|
E|------------------------------5--0--5------------------------------|

Chorus

G|-----------------------------------------------------------------------------------|
D|-----------------------------------------------------------------------------------|
A|--2--2--2--2--2--2--2----2--2-----2--0--2----2--2--2--2--2--2--2-----5-----------2-|
E|-------------------------------0----------------------------------------5--0--5----|

G|-----------------------------------------------------------------------------------|
D|-----------------------------------------------------------------------------------|
A|--2--2--2--2--2--2--2----2--2-----2--0--2----2--2--2--2--2--2--2-----5-----------2-|
E|-------------------------------0----------------------------------------5--0--5----|

G|-----------------------------------------------------------------------------------|
D|-----------------------------------------------------------------------------------|
A|--2--2--2--2--2--2--2----2--2-----2--0--2----2--2--2--2--2--2--2-----5-----------2-|
E|-------------------------------0----------------------------------------5--0--5----|

G|-----------------------------------------------------------------------------------|
D|-----------------------------------------------------------------------------------|
A|--2--2--2--2--2--2--2----2--2-----2----0----2----2--2--2--2--2--2--2----5----------|
E|-------------------------------0-------------------------------------------5--0----|

Outro

G|-------------------------------------------------------------------|
D|-------------------------------------------------------------------|
A|--5----------5-----------5-----------------------------------------|
E|-----5--0--------5--0-------5----7--------5--------0--------5------|

G|-------------------------------------------------------------------|
D|-------------------------------------------------------------------|
A|-----2--2--2--2--2--2--2--2----2----2--2---------------------------|
E|--5----------------------------------------------------------------|



            
            
Suggest correction
Creating personal tab
Creating personal tab
You can edit any tab online and save it as your Personal.

You can edit, replace or remove any tab part or add personal notes – all changes will be seen only by you.

Personal tabs can be accessed anytime from any device, even offline.
Learn more »
Give kudos to tab author, rate the tab!
1 2 3 4 5
comments
print report bad tab
guest
You may want to rate the tab now too:
select rating
Wanna post a correction for this tab? Suggest correction