Oops, an error
Loading. Please wait.
We have an official Too Much Too Young Too Fast tab made by UG professional guitarists. Check out the tab »
×
18,706 views 12 this week
3 commentsread comments
1 2 3 4 5
x 16
add to favorites
×
Save as Personal and add changes to this tab that will be seen only by you. Learn more ›
×
You can save this tab as Personal to edit and correct it or add notes. All changes will be seen only by you. Learn more »
launch autoscroll
font size
0
reset
guitar tuner
backing track
0:00
0:00
edit
Autoscroll
slow
fast
+/-
esc
set tempo
stop
Airbourne-Too Much Too Young Too Fast
Runnin' Wild (2007)
Transcribed by: playinbass1432
Email: playinbass1432@hotmail.com

Standard Tuning

Intro:

                                                        F# G   A          
G|-----------------|-----------------|-----------------|-----------------|
D|-----------------|-----------------|-----------------|-----------------|
A|-----------------|-----------------|-----------------|-----------------|
E|-----------------|-----------------|-----------------|-2-3---5---------|

   A                                   G       D        F# G A        
G|-----------------|-----------------|-----------------|-----------------|
D|-----------------|-----------------|-----------------|-----------------|
A|-----------------|-----------------|---------5-5-5-5-|-----------------|
E|-5-5-5-5-5-5-5-5-|-5-5-5-5-5-5-5-5-|-3-3-3-3---------|-2-3-5-5-5-5-5-5-|


Verse 1:

   A
G|-----------------|-----------------|-----------------|-----------------|
D|-----------------|-----------------|-----------------|-----------------|
A|-----------------|-----------------|-----------------|-----------------|
E|-5-5-5-5-5-5-5-5-|-5-5-5-5-5-5-5-5-|-5-5-5-5-5-5-5-5-|-5-5-5-5-5-5-5-5-|

   A
G|-----------------|-----------------|-----------------|-----------------|
D|-----------------|-----------------|-----------------|-----------------|
A|-----------------|-----------------|-----------------|-----------------|
E|-5-5-5-5-5-5-5-5-|-5-5-5-5-5-5-5-5-|-5-5-5-5-5-5-5-5-|-5-5-5-5-5-5-5-5-|

   A
G|-----------------|-----------------|-----------------|-----------------|
D|-----------------|-----------------|-----------------|-----------------|
A|-----------------|-----------------|-----------------|-----------------|
E|-5-5-5-5-5-5-5-5-|-5-5-5-5-5-5-5-5-|-5-5-5-5-5-5-5-5-|-5-5-5-5-5-5-5-5-|

   A
G|-----------------|-----------------|-----------------|-----------------|
D|-----------------|-----------------|-----------------|-----------------|
A|-----------------|-----------------|-----------------|-----------------|
E|-5-5-5-5-5-5-5-5-|-5-5-5-5-5-5-5-5-|-5-5-5-5-5-5-5-5-|-5-5-5-5-5-5-5-5-|

Pre Chorus 1:

   G                                   E                         G   D
G|-----------------|-----------------|-----------------|-----------------|
D|-----------------|-----------------|-----------------|---------5-------|
A|-----------------|-----------------|-----------------|-7-7-7-7-----5---|
E|-3---3-3-3-3-3-3-|-3-3-3-3-3-3-2-0-|-0-0-0-0-0-0-0-0-|-----------------|

Chorus 1:

   A                                   G       D        F# G A        
G|-----------------|-----------------|-----------------|-----------------|
D|-----------------|-----------------|-----------------|-----------------|
A|-----------------|-----------------|---------5-5-5-5-|-----------------|
E|-5-5-5-5-5-5-5-5-|-5-5-5-5-5-5-5-5-|-3-3-3-3---------|-2-3-5-5-5-5-5-5-|

   A                                   G       D        F# G A        
G|-----------------|-----------------|-----------------|-----------------|
D|-----------------|-----------------|-----------------|-----------------|
A|-----------------|-----------------|---------5-5-5-5-|-----------------|
E|-5-5-5-5-5-5-5-5-|-5-5-5-5-5-5-5-5-|-3-3-3-3---------|-2-3-5-5-5-5-5-5-|

Verse 2:

   A
G|-----------------|-----------------|-----------------|-----------------|
D|-----------------|-----------------|-----------------|-----------------|
A|-----------------|-----------------|-----------------|-----------------|
E|-5-5-5-5-5-5-5-5-|-5-5-5-5-5-5-5-5-|-5-5-5-5-5-5-5-5-|-5-5-5-5-5-5-5-5-|

   A
G|-----------------|-----------------|-----------------|-----------------|
D|-----------------|-----------------|-----------------|-----------------|
A|-----------------|-----------------|-----------------|-----------------|
E|-5-5-5-5-5-5-5-5-|-5-5-5-5-5-5-5-5-|-5-5-5-5-5-5-5-5-|-5-5-5-5-5-5-5-5-|

   A
G|-----------------|-----------------|-----------------|-----------------|
D|-----------------|-----------------|-----------------|-----------------|
A|-----------------|-----------------|-----------------|-----------------|
E|-5-5-5-5-5-5-5-5-|-5-5-5-5-5-5-5-5-|-5-5-5-5-5-5-5-5-|-5-5-5-5-5-5-5-5-|

   A
G|-----------------|-----------------|-----------------|-----------------|
D|-----------------|-----------------|-----------------|-----------------|
A|-----------------|-----------------|-----------------|-----------------|
E|-5-5-5-5-5-5-5-5-|-5-5-5-5-5-5-5-5-|-5-5-5-5-5-5-5-5-|-5-5-5-5-5-5-5-5-|

Pre Chorus 2:

   G                                   E                         G   D
G|-----------------|-----------------|-----------------|-----------------|
D|-----------------|-----------------|-----------------|---------5-------|
A|-----------------|-----------------|-----------------|-7-7-7-7-----5---|
E|-3---3-3-3-3-3-3-|-3-3-3-3-3-3-2-0-|-0-0-0-0-0-0-0-0-|-----------------|

Chorus 2:

   A                                   G       D        F# G A        
G|-----------------|-----------------|-----------------|-----------------|
D|-----------------|-----------------|-----------------|-----------------|
A|-----------------|-----------------|---------5-5-5-5-|-----------------|
E|-5-5-5-5-5-5-5-5-|-5-5-5-5-5-5-5-5-|-3-3-3-3---------|-2-3-5-5-5-5-5-5-|

   A                                   G       D        F# G A        
G|-----------------|-----------------|-----------------|-----------------|
D|-----------------|-----------------|-----------------|-----------------|
A|-----------------|-----------------|---------5-5-5-5-|-----------------|
E|-5-5-5-5-5-5-5-5-|-5-5-5-5-5-5-5-5-|-3-3-3-3---------|-2-3-5-5-5-5-5-5-|

   E                         G   D
G|-----------------|-----------------|
D|-----------------|---------5-------|
A|-----------------|-7-7-7-7-----5---|
E|-0-0-0-0-0-0-0-0-|-----------------|

Guitar Solo:

   A       G         D     A           G       D        F# G  A
G|-----------------|-----------------|-----------------|-----------------|
D|-----------------|-----------------|-----------------|-----------------|
A|-----------------|-5-5-5-----------|---------5-5-5-5-|-----------------|
E|-5-5-5-5-3-3-3-3-|-------5---5-5-5-|-3-3-3-3---------|-2-3-5-5-5-5-5-5-|

   A       G         D     A           G       D        F# G  A
G|-----------------|-----------------|-----------------|-----------------|
D|-----------------|-----------------|-----------------|-----------------|
A|-----------------|-5-5-5-----------|---------5-5-5-5-|-----------------|
E|-5-5-5-5-3-3-3-3-|-------5---5-5-5-|-3-3-3-3---------|-2-3-5-5-5-5-5-5-|

   E                         G   D
G|-----------------|-----------------|
D|-----------------|---------5-------|
A|-----------------|-7-7-7-7-----5---|
E|-0-0-0-0-0-0-0-0-|-----------------|

Chorus 3:

   A                                   G       D        F# G A        
G|-----------------|-----------------|-----------------|-----------------|
D|-----------------|-----------------|-----------------|-----------------|
A|-----------------|-----------------|---------5-5-5-5-|-----------------|
E|-5-5-5-5-5-5-5-5-|-5-5-5-5-5-5-5-5-|-3-3-3-3---------|-2-3-5-5-5-5-5-5-|

   A                                   G       D        F# G A        
G|-----------------|-----------------|-----------------|-----------------|
D|-----------------|-----------------|-----------------|-----------------|
A|-----------------|-----------------|---------5-5-5-5-|-----------------|
E|-5-5-5-5-5-5-5-5-|-5-5-5-5-5-5-5-5-|-3-3-3-3---------|-2-3-5-5-5-5-5-5-|
 
   C                           C#  D                     E   G
G|-----------------|-----------------|-----------------|-----------------|
D|-----------------|-----------------|-----------------|-----5-----5-5-5-|
A|-----------------|---------------5-|---5-5-5-5-5-5-5-|-7---------------|
E|-8-8-8-8-8-8-8-8-|-8-8-8-8-8-9-9---|-----------------|-----------------|

Outro:

   A                                   A                F# G   A          
G|-----------------|-----------------|-----------------|-----------------|
D|-7---------------|-----------------|-7\\\------------|--------------/6-|
A|-----------------|-----------------|-----------------|-----------------|
E|-----------------|-----------------|-----------------|-2-3---5---------|

   A                                   G       D        F# G   A    
G|-----------------|-----------------|-----------------|-----------------|
D|-7-7-7-7-7-7-7-7-|-7-7-7-7-7-7-7-7-|-5-5-5-5---------|-4-5---7---7-7-7-|
A|-----------------|-----------------|---------5-5-5-5-|-----------------|
E|-----------------|-----------------|-----------------|-----------------|

   A                                   G       D        F# G   A    
G|-----------------|-----------------|-----------------|-----------------|
D|-7-7-7-7-7-7-7-7-|-7-7-7-7-7-7-7-7-|-----------------|-----------------|
A|-----------------|-----------------|---------5-------|-----------------|
E|-----------------|-----------------|-3---------------|-2-3-2-5---------|

G|-----------------|-----------------|
D|-----------------|-----------------|
A|-----------------|-----------------|
E|-----------------|-----------------|


            
            
Suggest correction
Creating personal tab
Creating personal tab
You can edit any tab online and save it as your Personal.

You can edit, replace or remove any tab part or add personal notes – all changes will be seen only by you.

Personal tabs can be accessed anytime from any device, even offline.
Learn more »
comments
print report bad tab
3 comments total.
0 reply
aig91 4,357 Mar 05, 2008 08:25 AM

Great tab! I love how you put the notes over the actual tab. Nice job :)

0 reply
K-I 10 Mar 06, 2008 11:18 AM

Thanks alot for tabbing this out man,I owe yea one...

0 reply
VanMorgue 10 May 08, 2010 02:37 AM

Great tab (y)

guest
You may want to rate the tab now too:
select rating
Wanna post a correction for this tab? Suggest correction