Oops, an error
Loading. Please wait.
We have an official Too Much Too Young Too Fast tab made by UG professional guitarists. Check out the tab »
×
317 views 1 this week
no commentswrite comment
1 2 3 4 5
3 more votes to show rating
add to favorites
×
Save as Personal and add changes to this tab that will be seen only by you. Learn more ›
×
You can save this tab as Personal to edit and correct it or add notes. All changes will be seen only by you. Learn more »
launch autoscroll
font size
0
reset
guitar tuner
backing track
0:00
0:00
edit
Autoscroll
slow
fast
+/-
esc
set tempo
stop
Author
Difficulty
-------------------------------------------------------------------------------
                             TOO MUCH, TOO YOUNG, TOO FAST - Airbourne
-------------------------------------------------------------------------------


Tabbed by: Isaias Garcia (TexasFury)

Tuning: Standard


     Intro - m.4                                                   
     E  E  E  E  Q      Q        E  E  E  E  E  E  E  E   
G||---------------------------|--------------------------|
D||---------------------------|--------------------------|
A||--------------------12\----|--------------------------|
E||--2--3--L--5--L/-----------|--5--5--5--5--5--5--5--5--|


  E  E  E  E  E  E  E  E     E  E  E  E  E  E  E  E   
--------------------------|--------------------------|
--------------------------|--------------------------|
--------------------------|--------------5--5--5--5--|
--5--5--5--5--5--5--5--5--|--3--3--3--3--------------|


                              Verse 1                       
  E  E  E  E  E  E  E  E      E  E  E  E  E  E  E  E   
--------------------------||--------------------------|
--------------------------||--------------------------|
--------------------------||--------------------------|
--2--3--4--5--5--5--5--5--||--5--5--5--5--5--5--5--5--|


  E  E  E  E  E  E  E  E     E  E  E  E  E  E  E  E   
--------------------------|--------------------------|
--------------------------|--------------------------|
--------------------------|--------------------------|
--5--5--5--5--5--5--5--5--|--5--5--5--5--5--5--5--5--|


  E  E  E  E  E  E  E  E     E  E  E  E  E  E  E  E   
--------------------------|--------------------------|
--------------------------|--------------------------|
--------------------------|--------------------------|
--5--5--5--5--5--5--5--5--|--5--5--5--5--5--5--5--5--|


  E  E  E  E  E  E  E  E     E  E  E  E  E  E  E  E   
--------------------------|--------------------------|
--------------------------|--------------------------|
--------------------------|--------------------------|
--5--5--5--5--5--5--5--5--|--5--5--5--5--5--5--5--5--|


  E  E  E  E  E  E  E  E     E  E  E  E  E  E  E  E   
--------------------------|--------------------------|
--------------------------|--------------------------|
--------------------------|--------------------------|
--5--5--5--5--5--5--5--5--|--5--5--5--5--5--5--5--5--|


  E  E  E  E  E  E  E  E     E  E  E  E  E  E  E  E   
--------------------------|--------------------------|
--------------------------|--------------------------|
--------------------------|--------------------------|
--5--5--5--5--5--5--5--5--|--5--5--5--5--5--5--5--5--|


  E  E  E  E  E  E  E  E     E  E  E  E  E  E  E  E   
--------------------------|--------------------------|
--------------------------|--------------------------|
--------------------------|--------------------------|
--5--5--5--5--5--5--5--5--|--5--5--5--5--5--5--5--5--|


  E  E  E  E  E  E  E  E     E  E  E  E  E  E  E  E   
--------------------------|--------------------------|
--------------------------|--------------------------|
--------------------------|--------------------------|
--5--5--5--5--5--5--5--5--|--5--5--5--5--5--5--5--5--|


  E  E  E  E  E  E  E  E     E  E  E  E  E  E  E  E   
--------------------------|--------------------------|
--------------------------|--------------------------|
--------------------------|--------------------------|
--5--5--5--5--5--5--5--3--|--L--3--3--3--3--3--3--3--|


  E  E  E  E  E  E  E  E     E  E  E  E  E  E  E  E     E  E  E  E  Q    Q     
--------------------------|--------------------------|------------------------||
--------------------------|--------------------------|--------------5---------||
--------------------------|--------------------------|--7--7--7--7-------5----||
--3--3--3--3--3--3--2--0--|--L--0--0--0--0--0--0--0--|------------------------||


  Chorus 1                                                  
  E  E  E  E  E  E  E  E     E  E  E  E  E  E  E  E   
--------------------------|--------------------------|
--------------------------|--------------------------|
--------------------------|--------------------------|
--5--5--5--5--5--5--5--5--|--5--5--5--5--5--5--5--5--|


  E  E  E  E  E  E  E  E     E  E  E  E  E  E  E  E   
--------------------------|--------------------------|
--------------------------|--------------------------|
--------------5--5--5--5--|--------------------------|
--3--3--3--3--------------|--2--3--3--5--5--5--5--5--|


  E  E  E  E  E  E  E  E     E  E  E  E  E  E  E  E   
--------------------------|--------------------------|
--------------------------|--------------------------|
--------------------------|--------------------------|
--5--5--5--5--5--5--5--5--|--5--5--5--5--5--5--5--5--|


  E  E  E  E  E  E  E  E     E  E  E  E  E  E  E  E   
--------------------------|--------------------------||
--------------------------|--------------------------||
--------------5--5--5--5--|--------------------------||
--3--3--3--3--------------|--2--3--3--5--5--5--5--5--||


  Verse 2                                                  
  E  E  E  E  E  E  E  E     E  E  E  E  E  E  E  E   
--------------------------|--------------------------|
--------------------------|--------------------------|
--------------------------|--------------------------|
--5--5--5--5--5--5--5--5--|--5--5--5--5--5--5--5--5--|


  E  E  E  E  E  E  E  E     E  E  E  E  E  E  E  E   
--------------------------|--------------------------|
--------------------------|--------------------------|
--------------------------|--------------------------|
--5--5--5--5--5--5--5--5--|--5--5--5--5--5--5--5--5--|


  E  E  E  E  E  E  E  E     E  E  E  E  E  E  E  E   
--------------------------|--------------------------|
--------------------------|--------------------------|
--------------------------|--------------------------|
--5--5--5--5--5--5--5--5--|--5--5--5--5--5--5--5--5--|


  E  E  E  E  E  E  E  E     E  E  E  E  E  E  E  E   
--------------------------|--------------------------|
--------------------------|--------------------------|
--------------------------|--------------------------|
--5--5--5--5--5--5--5--5--|--5--5--5--5--5--5--5--5--|


  E  E  E  E  E  E  E  E     E  E  E  E  E  E  E  E   
--------------------------|--------------------------|
--------------------------|--------------------------|
--------------------------|--------------------------|
--5--5--5--5--5--5--5--5--|--5--5--5--5--5--5--5--5--|


  E  E  E  E  E  E  E  E     E  E  E  E  E  E  E  E   
--------------------------|--------------------------|
--------------------------|--------------------------|
--------------------------|--------------------------|
--5--5--5--5--5--5--5--5--|--5--5--5--5--5--5--5--5--|


  E  E  E  E  E  E  E  E     E  E  E  E  E  E  E  E   
--------------------------|--------------------------|
--------------------------|--------------------------|
--------------------------|--------------------------|
--5--5--5--5--5--5--5--5--|--5--5--5--5--5--5--5--5--|


  E  E  E  E  E  E  E  E     E  E  E  E  E  E  E  E   
--------------------------|--------------------------|
--------------------------|--------------------------|
--------------------------|--------------------------|
--5--5--5--5--5--5--5--5--|--5--5--5--5--5--5--5--3--|


  E  E  E  E  E  E  E  E     E  E  E  E  E  E  E  E   
--------------------------|--------------------------|
--------------------------|--------------------------|
--------------------------|--------------------------|
--L--3--3--3--3--3--3--3--|--3--3--3--3--3--3--2--0--|


                                                       Chorus 2                       
  E  E  E  E  E  E  E  E     E  E  E  E  Q    Q        E  E  E  E  E  E  E  E   
--------------------------|------------------------||--------------------------|
--------------------------|--------------5---------||--------------------------|
--------------------------|--7--7--7--7-------5----||--------------------------|
--L--0--0--0--0--0--0--0--|------------------------||--5--5--5--5--5--5--5--5--|


  E  E  E  E  E  E  E  E     E  E  E  E  E  E  E  E   
--------------------------|--------------------------|
--------------------------|--------------------------|
--------------------------|--------------5--5--5--5--|
--5--5--5--5--5--5--5--5--|--3--3--3--3--------------|


  E  E  E  E  E  E  E  E     E  E  E  E  E  E  E  E   
--------------------------|--------------------------|
--------------------------|--------------------------|
--------------------------|--------------------------|
--2--3--3--5--5--5--5--5--|--5--5--5--5--5--5--5--5--|


  E  E  E  E  E  E  E  E     E  E  E  E  E  E  E  E   
--------------------------|--------------------------|
--------------------------|--------------------------|
--------------------------|--------------5--5--5--5--|
--5--5--5--5--5--5--5--5--|--3--3--3--3--------------|


  E  E  E  E  E  E  E  E     E  E  E  E  E  E  E  E     E  E  E  E  Q    Q     
--------------------------|--------------------------|------------------------||
--------------------------|--------------------------|--------------5---------||
--------------------------|--------------------------|--7--7--7--7-------5----||
--2--3--3--5--5--5--5--5--|--0--0--0--0--0--0--0--0--|------------------------||


  Guitar Solo                                                   
  E  E  E  E  E  E  E  E     E  E  E  E  E  E  E  E   
--------------------------|--------------------------|
--------------------------|--------------------------|
--------------------------|--5--5--5-----------------|
--5--5--5--5--3--3--3--3--|-----------5--5--5--5--5--|


  E  E  E  E  E  E  E  E     E  E  E  E  E  E  E  E   
--------------------------|--------------------------|
--------------------------|--------------------------|
--------------5--5--5--5--|--------------------------|
--3--3--3--3--------------|--2--3--3--5--5--5--5--5--|


  E  E  E  E  E  E  E  E     E  E  E  E  E  E  E  E   
--------------------------|--------------------------|
--------------------------|--------------------------|
--------------------------|--5--5--5-----------------|
--5--5--5--5--3--3--3--3--|-----------5--5--5--5--5--|


  E  E  E  E  E  E  E  E     E  E  E  E  E  E  E  E   
--------------------------|--------------------------|
--------------------------|--------------------------|
--------------5--5--5--5--|--------------------------|
--3--3--3--3--------------|--2--3--3--5--5--5--5--5--|


                                                       Chorus 3                       
  E  E  E  E  E  E  E  E     E  E  E  E  Q    Q        E  E  E  E  E  E  E  E   
--------------------------|------------------------||--------------------------|
--------------------------|--------------5---------||--------------------------|
--------------------------|--7--7--7--7-------5----||--------------------------|
--0--0--0--0--0--0--0--0--|------------------------||--5--5--5--5--5--5--5--5--|


  E  E  E  E  E  E  E  E     E  E  E  E  E  E  E  E   
--------------------------|--------------------------|
--------------------------|--------------------------|
--------------------------|--------------5--5--5--5--|
--5--5--5--5--5--5--5--5--|--3--3--3--3--------------|


  E  E  E  E  E  E  E  E     E  E  E  E  E  E  E  E   
--------------------------|--------------------------|
--------------------------|--------------------------|
--------------------------|--------------------------|
--2--3--3--5--5--5--5--5--|--5--5--5--5--5--5--5--5--|


  E  E  E  E  E  E  E  E     E  E  E  E  E  E  E  E   
--------------------------|--------------------------|
--------------------------|--------------------------|
--------------------------|--------------5--5--5--5--|
--5--5--5--5--5--5--5--5--|--3--3--3--3--------------|


  E  E  E  E  E  E  E  E     E  E  E  E  E  E  E  E   
--------------------------|--------------------------|
--------------------------|--------------------------|
--------------------------|--3--3--3--3--3--3--3--3--|
--2--3--3--5--5--5--5--5--|--------------------------|


  E  E  E  E  E  E  E  E     E  E  E  E  E  E  E  E   
--------------------------|--------------------------|
--------------------------|--------------------------|
--3--3--3--3--3--4--4--5--|--5--5--5--5--5--5--5--5--|
--------------------------|--------------------------|


                                    Outro                                      
  E  E  E   E   E   E   E   E       W                    W                 
-------------------------------||--------------------|--------------------|
-------------------------------||--------------------|--------------------|
--5--7--7--10--10--10--10--10--||--12----------------|---L----------------|
-------------------------------||--------------------|--------------------|


   Q     Q    H           E  E  E  E  E  E  Q      
-----------------------|--------------------------|
-----------------------|--------------------------|
--12\------------------|--------------------3/----|
-----------------------|--2--3-----5--L--5--------|


   E   E   E   E   E   E   E   E      E   E   E   E   E   E   E   E   
----------------------------------|----------------------------------|
----------------------------------|----------------------------------|
--12--12--12--12--12--12--12--12--|--12--12--12--12--12--12--12--12--|
----------------------------------|----------------------------------|


   E   E   E   E  E  E  E  E     E   E   E   E   E   E   E   E   
------------------------------|---------------------------------|
------------------------------|---------------------------------|
--10--10--10--10--5--5--5--5--|--9--10--10--12--12--12--12--12--|
------------------------------|---------------------------------|


   E   E   E   E   E   E   E   E      E   E   E   E   E   E   Q      
----------------------------------|---------------------------------|
----------------------------------|---------------------------------|
--12--12--12--12--12--12--12--12--|--12--12--12--12--12--12--12\----|
----------------------------------|---------------------------------|


  H        H           E  E  E  E  H           W                 
--------------------|-----------------------|-------------------|
--------------------|-----------------------|-------------------|
-----------5--------|-----------------------|-------------------|
--3-----------------|--2--3--2--5--L--------|--L----------------|


  W                   E  S S Q    H          
-------------------|-----------------------||
-------------------|-----------------------||
-------------------|-----------------------||
--L----------------|--L--5-5-5-------------||


Duration Legend
---------------
W - whole
H - half
Q - quarter
E - 8th

Tablature Legend
----------------
L - tied note
h - hammer on
p - pull off
/ -  slide into from below or out of upwards
\ -  slide into from above or out of downwards


Get my other tabs for Guitar Pro, Powertab, guitar/bass text and chords at
http://profile.ultimate-guitar.com/TexasFury/contributions/

            
            
Suggest correction
Creating personal tab
Creating personal tab
You can edit any tab online and save it as your Personal.

You can edit, replace or remove any tab part or add personal notes – all changes will be seen only by you.

Personal tabs can be accessed anytime from any device, even offline.
Learn more »
Give kudos to tab author, rate the tab!
1 2 3 4 5
comments
print report bad tab
guest
You may want to rate the tab now too:
select rating
Wanna post a correction for this tab? Suggest correction