Oops, an error
Loading. Please wait.
We have an official Too Much Too Young Too Fast tab made by UG professional guitarists. Check out the tab »
×
45,863 views 39 this week
4 commentsread comments
1 2 3 4 5
x 14
add to favorites
×
Save as Personal and add changes to this tab that will be seen only by you. Learn more ›
×
You can save this tab as Personal to edit and correct it or add notes. All changes will be seen only by you. Learn more »
launch autoscroll
font size
0
reset
how to read this tab
guitar tuner
backing track
0:00
0:00
edit
Autoscroll
slow
fast
+/-
esc
set tempo
stop
Author
Too much too young too fast by airbourne

E|----------------------------3-3---------------3-----------------------------|
B|----------------3-3---------3-3----3-3----3---3-----------------------------|
G|--9-9----7-7----2-2----2----0-0----2-2----2---0----2------------------------|
D|--7-7----5-5----0-0----2----0-0----0-0----0---0----2------------------------|
A|--0-0----0-0----0-0----0-----------0-0-------------0------------------------|
E|----------------------------3-3-----------2---3---------x-x-12/-------------|

E|----------------------------3-3---------------------------------------------|
B|----------------------------3-3----3-3----3---------------------------------|
G|--9~9----7-7----7-7----2----0-0----2-2----2----0----2---2---2---------------|
D|--7-7----5-5----4-4----2----0-0----0-0----0----0----2---2---2---------------|
A|--0~0~---0-0----0-0----0-----------0-0----0---------0---0---0---------------|
E|----------------------------3-3----------------3----------------------------|

E|-------------------------------3-------------3------------------------------|
B|-------------------------------3-------------3------------------------------|
G|--2----------------------------0--------2----0--2--2--2----2----------------|
D|--2----------------------------0--0--2--2----0--0--2--2----2----------------|
A|--0-0-0-0-0-0-0-0-0-0-0-0-0-0-----0--0--0-------0--0--0----0-0-0-0-0-0-0----|
E|-------------------------------3-------------3------------------------------|

E|-----------------3--------------3-------------------------------------------|
B|-----------------3--------------3-------------------------------------------|
G|-----------------0--------2--x--0----2--2-----2--------2----2---------------|
D|-----------------0--0--2--2--x--0----0--2-----2--------2----2---------------|
A|--0-0-0-0-0-0-0-----0--0--0--x-------0--0--0--0--0-----0----0-0-0-0-0-0-0---|
E|-----------------3--------------3-------------------3-----------------------|

E|-----------------3-----------------3--------------------3----------------------|
B|-----------------3-----------------3--------------------3----------------------|
G|-----------------0--------2-----2--0--2--2-----2-----2--0----------------------|
D|-----------------0--0--2--2-----2--0--0--2-----2-----2--0--------------------2-|
A|--0-0-0-0-0-0-0-----0--0--0--0--0-----0--0--0--0--0--0-----------------------2-|
E|-----------------3-----------------3--------------------3--3-3-3-3-3-3-3-2-0-0-|

E|---------------------------3-----------------------3-3-------------------------|
B|-----------------5-5-5-----3--3--------------3-----3-3--3-3---3----------------|
G|-----------------4-4-4-----0--2--9-9-9/-7-7--2--2--0-0--2-2---2--0--2----------|
D|--2-2-2-2-2-2-2--2-2-2--0--0--0--7-7-7/-5-5--0--2--0-0--0-0---0--0--2----------|
A|--2-2-2-2-2-2-2---------0-----0--------------0--0-------------0-----0----------|
E|--0-0-0-0-0-0-0------------3-----------------------3-3-----------3----x-x-12/--|

E|------------------3-3-3--------------------------------------------------------|
B|------------3-----3-3-3--3-3--3------------------------------------------------|
G|--9-9--7-7--2--2--0-0-0--2-2--2--0---2--2--2-----------------------------------|
D|--7-7--5-5--0--2--0-0-0--0-0--0--0---2--2--2-----------------------------------|
A|------------0--0--------------0------0--0--0-----------------------------------|
E|------------------3-3-3----------3---------------------------------------------|

E|-------------------------------3-------------3------------------------------|
B|-------------------------------3-------------3------------------------------|
G|--2----------------------------0--------2----0--2--2--2----2----------------|
D|--2----------------------------0--0--2--2----0--0--2--2----2----------------|
A|--0-0-0-0-0-0-0-0-0-0-0-0-0-0-----0--0--0-------0--0--0----0-0-0-0-0-0-0----|
E|-------------------------------3-------------3------------------------------|

E|-------------------------------------------------3-------------3------------|
B|-------------------------------------------------3-------------3------------|
G|--2-2---2-----2----2-----------------------------0-------2-----0------------|
D|--0-2---2-----2----2-----------------------------0-0--2--2-----0------------|
A|--0-0-0-0-0-0-0----0-0-0-0-0-0-0-0-0-0-0-0-0-0-0---0--0--0-0-0--------------|
E|-------------------------------------------------3-------------3------------|

E|---------------------------------------------3------------3-----------------|
B|---------------------------------------------3------------3-----------------|
G|--2-2---2-----2--2---------------------------0-----2------0-----------------|
D|--0-2---2-----2--2---------------------------0-0-2-2------0-----------------|
A|--0-0-0-0-0-0-0--0-0-0-0-0-0-0-0-0-0-0-0-0-0---0-0-0-0----------------------|
E|---------------------------------------------3---------3--3-----------------|

E|----------------------------------------------3--------------3-----------------|
B|----------------------------------------------3--------------3-----------------|
G|--2-2---2------2--2---------------------------0-----2-----2--0-----------------|
D|--0-2---2------2--2---------------------------0-0-2-2-----2--0-----------------|
A|--0-0-0-0-0----0--0-0-0-0-0-0-0-0-0-0-0-0-0-0---0-0-0--0--0--------------------|
E|------------3---------------------------------3--------------3-----------------|

E|-----------------3-------------------------------------------------------------|
B|-----------------3-------------------------------------------------------------|
G|--2-2---2--------0-------------------------------------------------------------|
D|--0-2---2--------0--0-0-0-----------------------2--2-2-2-2-2-2-2---------------|
A|--0-0-0-0--3--2---------------------------------2--2-2-2-2-2-2-2---------------|
E|-----------------3--3-3-3-3-3-3-3-3-3-3-3-3-2-0-0--0-0-0-0-0-0-0---------------|

E|-----------3-------------------3-3---------------------------------------------|
B|--5-5-5----3--------------3----3-3--3-3--3-------------------------------------|
G|--4-4-4--0-0--9-9-9/-7-7--2-2--0-0--2-2--2--0--3-------------------------------|
D|--2-2-2--0-0--7-7-7/-5-5--0-2--0-0--0-0--0--0--2-------------------------------|
A|--------------------------0-0------------0-----0-------------------------------|
E|-----------3-------------------3-3----------3----x-x-12/-----------------------|

E|---------------3-3------------------------------------------3--2---------------|
B|------------3--3-3--3-3--3----------------------------------3--3---------------|
G|--9-9--7-7--2--0-0--2-2--2--0--2--2---------------9-9-9--0--0--2---------------|
D|--7-7--5-5--0--0-0--0-0--0--0--2--2------2-2-2-2--9-9-9--0--0--0---------------|
A|------------0------------0-----0--0------2-2-2-2--7-7-7--------0---------------|
E|---------------3-3----------3-------3-2--0-0-0-0------------3------------------|

solo
E|------5------------------------------------------17----------------------------|
B|----5---8-5---5---5-8-5---5---5-8-5-8-8-8-----17----17-20-20-20-17-17----------|
G|--7---------7---7-------7---7--------------19----------------------------------|
D|-------------------------------------------------------------------------------|
A|-------------------------------------------------------------------------------|
E|-------------------------------------------------------------------------------|

E|-------------------------------------17----------------------------17----------|
B|-------------------17-------------17----20-17----17-20-17----17--x-20-20-------|
G|--19-17------------17----------19-------------19----------19---x---------------|
D|-------19-17----------19-17-19-------------------------------------------------|
A|-------------19-19-------------------------------------------------------------|
E|-------------------------------------------------------------------------15/---|

E|--------------------------------------------------------------12---------------|
B|-----------------------------------------------------------12----15-12----12-15|
G|-----------------------------------------------12----12-14-------------14------|
D|-----------------------------------------------12-14---------------------------|
A|--7-5-7-5-7-7-5-4-5-4-5-4-5-4-5-------------14---------------------------------|
E|--------------------------------3-4-5-5-3-2------------------------------------|

E|----------------------------3-3---------------------------------------------|
B|----------------------------3-3----3-3----3---------------------------------|
G|--9~9----7-7----7-7----2----0-0----2-2----2----0----2---2---2---------------|
D|--7-7----5-5----4-4----2----0-0----0-0----0----0----2---2---2---------------|
A|--0~0~---0-0----0-0----0-----------0-0----0---------0---0---0---------------|
E|----------------------------3-3----------------3----------------------------|

E|--------------------3-3---------------------------------------------------------|
B|--------------3-----3-3--3-3--3-------------------------------------------------|
G|--9~9----7-7--2--2--0-0--2-2--2--0--2-2-2---------------------------------------|
D|--7-7----5-5--0--2--0-0--0-0--0--0--2-2-2--5-5-5-5-5-5-5--7--7-7-7-7-7-7-7-7-7--|
A|--0~0~---0-0--0--0------------0-----0-0-0--3-3-3-3-3-3-3--4--5-5-5-5-5-5-5-5-5--|
E|--------------------3-3----------3----------------------------------------------|

E|-----------------------------------3-3-------------------------------------|
B|-------------------------3-3-3-----3-3---3-3--3----------------------------|
G|-------------9-9-9-9--7--2-2-2--2--0-0---2-2--2--0--2-2-2------------------|
D|--9--12—12/--7-7-7-7--5--0-0-0--2--0-0---0-0--0--0--2-2-2------------------|
A|--7--10—10/---------------------0-------------0-----0-0-0------------------|
E|-----------------------------------3-3-----------3-------------------------|

E|---------------------------------------------------------------------------|
B|--10-10-10-10--8--8-8-8--7-7--8--10--10--8--8--7------7-7-5----------------|
G|--12-----------10--------9----10-12------10----9--9-5-7-7-5----------------|
D|------------------------------------------------------------7--7-5-7-------|
A|---------------------------------------------------------------------------|
E|---------------------------------------------------------------------------|

E|--17-17----15-15----15-14-14----------17-----15-14-14-14/------------------|
B|--------20-------19----------17-18-20--------18----17-17/----7-7-5---------|
G|-----------------------------------------0-0-------------5-7-7-7-5---------|
D|-----------------------------------------0-0-------------------------------|
A|---------------------------------------------------------------------------|
E|---------------------------------------------------------------------------|

E|---------------------------------------------------------------------------|
B|---------------------------------------------------------------------------|
G|---------------------------------------------------------------------------|
D|--7-7-5--------------------------------------------------------------------|
A|--------7-6-5-3-0----------------------------------------------------------|
E|---------------------------------------------------------------------------|

************************************

| x  Dead note
| /  Slide up
| ~  Vibrato

************************************
Suggest correction
Creating personal tab
Creating personal tab
You can edit any tab online and save it as your Personal.

You can edit, replace or remove any tab part or add personal notes – all changes will be seen only by you.

Personal tabs can be accessed anytime from any device, even offline.
Learn more »
comments
print report bad tab
4 comments total. Showing first comments.
+3 reply
playinbass1432 1,442 Mar 21, 2008 08:28 AM

Wow! Very good tab.

+2 reply
Ledzeppelin0094 331 Aug 07, 2008 12:40 PM

Perfect. I have not seen one this good. Five stars.

0 reply
callum6052 10 Nov 08, 2009 08:55 PM

solos wrong, no bends where there are supposed to be. spose it gives u the basic idea. =\ 4 stars.

guest
You may want to rate the tab now too:
select rating
Wanna post a correction for this tab? Suggest correction