Oops, an error
Loading. Please wait.

Pagdating Ng Panahon tab

version 4
version 4

Whole song

Interactive

1,148 views 9 this week
no commentswrite comment
1 2 3 4 5
3 more votes to show rating
add to favorites
×
Save as Personal and add changes to this tab that will be seen only by you. Learn more ›
×
You can save this tab as Personal to edit and correct it or add notes. All changes will be seen only by you. Learn more »
launch autoscroll
font size
0
reset
how to read this tab
guitar tuner
edit
Autoscroll
slow
fast
+/-
esc
set tempo
stop
Author
Difficulty
PAGDATING NG PANAHON by AIZA SEQUERRA

Tabs written and arranged by Edwin-E (in YouTube)
Blog: http://guitarplucking.blogspot.com
Facebook Page: EGuitar

Video Tutorial:  http://www.youtube.com/watch?v=LyAy9H2_eAw

INTRO:

E|-------------------------------------------------------------------|
B|--0--------0----------1--3--1--------0--------0-----------1--3--1--|
G|----2--1-----------1-----------2--------2--1-----------1-----------|
D|----------------2-----------------2-----------------2--------------|
A|-------------2--------0--------------------------2--------0--------|
E|--0----------------------------------0-----------------------------|
E Am E Am


VERSE 1:
E|-----------------------------------------4--------------------------------|
B|--------0--------0--0-----------------5--------------------------------0--|
G|--1--2-----------------2--1--4-----4--------2--2--2--4-----1--------1-----|
D|--------------2-----------------6-----------------------4--------2--------|
A|-----------2-----------------4--------------0--------2--------2-----------|
E|--------0--------------------------------------------------0--------------|
      E              C#m7 A       B    E
Alam kong hindi mo pansin narito lang ako


E|--------------------------------0--------0--------0--0--0--0--0-----------------------|
B|--0--2--4--5--------5--5--7-----------2--2--2--4--2--2-----------4--2-----------4-----|
G|-----------------6-----------6-----2-----2--------2--2-----------------4-----4-----4--|
D|--------------6-----------------------------------------------------------4-----------|
A|-----------4--------------------------------------0--------------------2--------------|
E|--------------------------------2-----------------------------------------------------|
       C#m7        F#m    B                 C   B
Naghihintay na mahalin umaasa kahit di man ngayon


E|--------------4--2-----------------2-----------------------|
B|--------------------------4--4--5-----------4-----------4--|
G|--4--2--2--2-----------------------------4-----4-----4-----|
D|-----2-----------------4--------------4-----------4--------|
A|-----0--------------4--------------2-----------2-----------|
E|-----------------2-----------------------------------------|
   A          F#m                B   B
Mapapansin mo rin mapapansin mo rin


E|-----------------------------------------4--------------------------------|
B|--------0--------0--0-----------------5--------------------------------0--|
G|--1--2-----------------2--1--4-----4--------2--2--2--4-----1--------1-----|
D|--------------2-----------------6-----------------------4--------2--------|
A|-----------2-----------------4--------------0--------2--------2-----------|
E|--------0--------------------------------------------------0--------------|
      E                C#m7  A       B    E
Alam kong hindi mo makita    narito lang ako


E|--------------------------------0--------0--------0--0--0--0--0-----------------------|
B|--0--2--4--5--------5--5--7-----------2--2--2--4--2--2-----------4--2-----------4-----|
G|-----------------6-----------6-----2-----2--------2--2-----------------4-----4-----4--|
D|--------------6-----------------------------------------------------------4-----------|
A|-----------4--------------------------------------0--------------------2--------------|
E|--------------------------------2-----------------------------------------------------|
       C#m7       F#m   B             C     B
Hinihintay lagi kita umaasa kahit di man ngayon


E|--------------4--2-----------------2--------4--5--|
B|--------------------------4--4--5-----------------|
G|--4--2--2--2-----------------------------4--------|
D|-----2-----------------4--------------4-----------|
A|-----0--------------4--------------2-----------2--|
E|-----------------2--------------------------------|
A            F#m     B      B
Hahanapin mo rin hahanapin din


CHORUS:

E|--0--2--4-----------5--4--2--------------------------4--------------|
B|-----------------0-----------------4--4--4--5--7--7-----4--7--5--5--|
G|--------------------------------4--------------------------------6--|
D|--------------2--------------4-----------------------------------6--|
A|-----------2--------------2--------------------------------4--------|
E|--------0--------------------------------------4--------------------|
     E          B          Abm         C#m
Pagdating ng panahon baka ikaw rin at ako


E|-----------0--0-----------4--------------------4-----2--------------|
B|--------4--2--2--4--2--------5--------------------7-----------4--4--|
G|--6--6-----2--2--4-----4-----------2--------2--------------4-----4--|
D|--------------------------------6--------4--------------4--------4--|
A|-----------0-----2-----------4--------4--------------2-----------2--|
E|-----------------------4-----------2--------------------------------|
        A     B    Abm   C#m    F#m         B
Baka tibok ng puso koy maging tibok ng puso mo


E|--0--2--4-----------5--4--2--------------------------4--------------|
B|-----------------0-----------------4--4--4--5--7--7-----4--7--5--5--|
G|--------------------------------4--------------------------------6--|
D|--------------2--------------4-----------------------------------6--|
A|-----------2--------------2--------------------------------4--------|
E|--------0--------------------------------------4--------------------|
      E              B        Abm          C#m
Sana nga’y mangyari yun kahit di palang ngayon


E|-------0--------------------------2-----------------0-----------0--|
B|----2-----4--4--2-----7--5--5--5--2--------4--5--4--0-----------0--|
G|----2-----4--------4-----6-----------------4-----------------1--1--|
D|----------------------------------------4-----------------2-----2--|
A|----0-----2--------------4-----------4-----2-----------2--------2--|
E|-------------------4--------------2-----------------0-----------0--|
A    B      Abm    C#m       F#m B       E
Sana ay mahalin mo rin pagdating ng panahon…..

VERSE 2: {follow TABs on Verse 1}


      E             C#m7  A       B    E
Alam kong hindi mo alam   narito lang ako

        C#m7         F#m       B              C       B
Maghihintay kahit kailan nangangarap kahit di man ngayon

A            F#m        B      B
Mamahalin mo rin mamahalin mo rin

{Repeat CHORUS}

BRIDGE:


E|----4--------4--4/5--4--1--------4--------------|
B|----2--2--2-------------0--7--7-----4--7--5--5--|
G|---------------------------------------------6--|
D|---------------------------------------------6--|
A|----0-------------------0--------------4--------|
E|---------------------------4--------------------|
AM7          Am    Abm          C#m
Di pa siguro bukas di pa rin ngayon


E|-----------------2--4--2-----------4--2--4--5--2--------3--|
B|--------2--4--5-----------5--------------------------------|
G|-----------------------------------------------------4-----|
D|--------------------------------4-----------------4--------|
A|-----4-----------------------2-----------------2--------3--|
E|--2-----------------------2--------------------------------|
F#                    B             B-C
Malay mo balang araw   dumating din yon …

CHORUS 2: {chords 1 Fret Higher}

E|--1--3--5-----------6--5--3--------------------3--3--3/5--0--3--1--1--|
B|-----------------1-----------------5--5--5--6----------------------3--|
G|--------------------------------5----------------------------------2--|
D|--------------3--------------5-------------------------------0-----0--|
A|-----------3--------------3--------------------0----------------------|
E|--------1-------------------------------------------------------------|
      F           C        Am          Dm
Pagdating ng panahon baka ikaw rin at ako


E|----------0--1--1-----------5--1-----------------5-----3-----------3--|
B|----2--2-----3--3--5--3--1-----3--------------------6-----------1--1--|
G|-------------------5-----3--------2--3--------3--------------0-----0--|
D|-------------------------------0-----------5--------------2--------2--|
A|-------------1-----3-----0--------------5--------------3-----------3--|
E|-------------------------------------3--------------------------------|
        Bb    C    Am     Dm     G          C
Baka tibok ng puso koy maging tibok ng puso mo


E|--1--3--5-----------6--5--3--------------------3--3--3/5--0--3--1--1--|
B|-----------------1-----------------5--5--5--6----------------------3--|
G|--------------------------------5----------------------------------2--|
D|--------------3--------------5-------------------------------0-----0--|
A|-----------3--------------3--------------------0----------------------|
E|--------1-------------------------------------------------------------|
      F              C        Am           Dm
Sana nga’y mangyari yun kahit di palang ngayon


E|-----1--------------3--1--1--3--5--3-----------------1-----------1--|
B|--3-----5--5--3--1-----3--------------------5--6--5--------------1--|
G|--------5--------2-----------------------5--------------------2--2--|
D|-----------------------0--------------5--------------------3-----3--|
A|--1-----3--------0-----------------3--------------------3--------3--|
E|--------------------------------3--------------------1-----------1--|
Bb   C      Am     Dm         G   C       F
Sana ay mahalin mo rin pag dating ng panahon.

            
            
Suggest correction
Creating personal tab
Creating personal tab
You can edit any tab online and save it as your Personal.

You can edit, replace or remove any tab part or add personal notes – all changes will be seen only by you.

Personal tabs can be accessed anytime from any device, even offline.
Learn more »
Give kudos to tab author, rate the tab!
1 2 3 4 5
comments
print report bad tab
guest
You may want to rate the tab now too:
select rating
Wanna post a correction for this tab? Suggest correction