Oops, an error
Loading. Please wait.

Trip Na Trip Chords

by Aizo
1,098 views 1 this week
no commentswrite comment
1 2 3 4 5
please rate
add to favorites
launch autoscroll
font size
0
reset
transpose
0
reset
display chords
guitar tuner
Autoscroll
slow
fast
+/-
esc
set tempo
stop
Help us to improve Ultimate-Guitar.com Take our survey!
×
Contributor
jem 07 56
Trip na Trip
by: Aizo
from Studio 23 "Barkada Trip"
Tab ni: jem
Notes: Power chords madalas na gamit
       Bagsakbagsak lang yung struming sa mga "Am"

Intro: Drum beat
  G--                   C--
e|-------------------|----------------------|
B|-------------------|----------------------|
G|-------------------|----------------------| 4x
D|-------------------|-----------3-5--------|
A|---------3p2(2)----|--3--33-h5------------|
E|--3--3-3--------3--|----------------------|

Stanza 1
G
 Tatawa ng tatawa
Em
 Magdamag hanggang umaga
Am
 Maghahabulan
C            D
 Hanngang sa dulo ng mundo.
G
 Matutulog nang matutulog
Em
 Magigising lang 'pag ako'y nahulog
Am
 Kakain ng papel (ako'y isang anghel)
C              D
 Mag-aabang ng balde ng kahel.

Interlude
  G--                   C--
e|-------------------|----------------------|
B|-------------------|----------------------|
G|-------------------|----------------------| 4x
D|-------------------|-----------3-5--------|
A|---------3p2(2)----|--3---3-h5------------|
E|--3----3--------3--|----------------------|

Bridge (yata tawag dito)
G-Em-Am-C-D
(Food trip) Kakain ng kakain
(Sound trip) Makikinig kayo sa amin
(Laugh trip) Tatawa ng tatawa
(Barkada trip) Kapag kasama ang barkada.

Stanza 2
G
 Trip ko 'yan trip ko 'yun trip na trip ko 'tong lahat
Em
 Trtip na trip tumambay at magskateboard sa tapat
Am
 Kahit ano pang trip,(basta 'wag ka lang maidlip)
C
 Kahit ano pang trip!
D
 Ito ang trip na trip!

Chorus
G        Em
 Barkada trip, barkada
Am       C,D   D
 Barkada trip! trip! (4x)

Repeat Interlude 4x

Stanza 3
G
 Tatambling ng tatambling
Em
 Masiswiming kami sa hangin
Am
(Kikay trip) Magmemake-up magmemake-up
C                       D
(Bad trip) ang magsyota magbebereak-up
G
 Tatagay ng tatagay
Em
 Tatambay hanggang wala ng malay
Am
 (Tulog trip) Matutulog sa kalye
C                D
  Mananaginip ng simple lang

Adlib
B--A-B-C-B-G
B--A-B-C-B-D
(then)
e|-------------------|----------------------|
B|Bass-na------------|--Palm-mute-----------|
G|------dito---------|----------------------| 4x
D|-------------------|-----------3-5--------|
A|---------3p2(2)----|--3---3-h5------------|
E|--3----3--------3--|----------------------|

e|----------------------|
B|----------------------|
G|----------------------| 
D|-----------3-5b~~~~~--|
A|--3---3-h5------------|
E|----------------------|
G--C-- yung chords 4x tapos end sa D

Repeat Chorus 4x
C,D   D    G (Break)
Trip! trip!

                              END
Any comments, questions, suggestions, or violent reactions e-mail na lang
sa patatasland@yahoo.com. Salamat.
Cornmunist Company Rulz!!! Yeah!
comments
We did not receive enough feedback on this tab! Please rate:
print report bad tab
1 2 3 4 5
I want to post or [tab]
guest
You may want to rate the tab now too:
select rating
Please do not post tabs as comments. Select "correction" instead!