Oops, an error
Loading. Please wait.

Trip Na Trip tab

version 1
version 1

Whole song

by Aizo
850 views 1 this week
no commentswrite comment
1 2 3 4 5
x 4
add to favorites
×
Save as Personal and add changes to this tab that will be seen only by you. Learn more ›
×
You can save this tab as Personal to edit and correct it or add notes. All changes will be seen only by you. Learn more »
launch autoscroll
font size
0
reset
how to read this tab
guitar tuner
edit
Autoscroll
slow
fast
+/-
esc
set tempo
stop
Title: Trip na Trip(Barkada Trip, Oh ha!)
Artist: Aizo
Album: nababaliw na ang payaso(chico)
Copy year: 2006

Tabber: Michael -chico- Rombawa
for friendstertseness : mykro85@yahoo.com
for myspacers & neatvibers: chicoholics@yahoo.com


Pakinggan nu nalang ung kanta para sa timing ng switching...hehe^_^

*									     *
*   ~  - let ring (pakinggan nu nalang ung kanta kung ilang kaskas! hehe)    *
*   / - slide								     *
*   x - mute		                                                     *
*   h - hammer						                     *
*									     *


Intro

wait for the drummer then

e|------------------------------------------------------|
B|------------------------------------------------------|
G|----------555-----777--77--7/9---9/11-----------------|
D|----55----555-----777--xx--x/x---x/x------------------|  x4
A|----55----333-----555--55--5/7---7/9------------------|
D|----33------------------------------------------------|

Verse

e|------------------------------------------------------------------|
B|------------------------------------------------------------------|
G|----------------55555555----7h7h7h7h7h7h7h7---9h9h9h9h9h9h9h9-----|
D|----55555555----55555555----7h7h7h7h7h7h7h7---9h9h9h9h9h9h9h9-----|  x2
A|----55555555----33333333----5h5h5h5h5h5h5h5---7h7h7h7h7h7h7h7-----|
D|----33333333------------------------------------------------------|

Tatawa nang tatawa
Magdamag hanggang umaga
Maghahabulan
Hanggang sa dulo ng mundo
Matutulog nang matutulog
Magigising lang 'pag ako'y nahulog
Kakain ng papel, ako'y isang anghel
Mag-aabang ng balyenang kahel

Interlude

e|-----------------------------------------------------|
B|-----------------------------------------------------|
G|----------555-----777--77--7/9---9/11----------------|
D|----55----555-----777--xx--x/x---x/x-----------------|  x4
A|----55----333-----555--55--5/7---7/9-----------------|
D|----33-----------------------------------------------|


Refrain 1

e|----------------------------------------------------|
B|----------------------------------------------------|
G|----------------55555555----77777777---55555555-----|
D|----55555555----55555555----77777777---55555555-----|
A|----55555555----33333333----55555555---33333333-----|
D|----33333333----------------------------------------|

(food trip!) kakain nang kakain
(sound trip!) makikinig kayo sa amin
(laugh trip!) tatawa nang tatawa
(barkada trip!) kapag kasama ang barkada


Refrain 2


e|------------------------------------------------------------------|
B|------------------------------------------------------------------|
G|----------------55555555----7h7h7h7h7h7h7h7---9h9h9h9h9h9h9h9-----|
D|----55555555----55555555----7h7h7h7h7h7h7h7---9h9h9h9h9h9h9h9-----|
A|----55555555----33333333----5h5h5h5h5h5h5h5---7h7h7h7h7h7h7h7-----|
D|----33333333------------------------------------------------------|

Trip ko yan, trip ko yun, trip ko 'tong lahat
Trip na trip tumambay at magskateboard sa tapat
Kahit ano pang trip, basta wag ka lang maidlip
Kahit ano pang trip, ito ang trip na trip!

Chorus

e|--------------------------------------------------------------------|
B|--------------------------------------------------------------------|
G|--------------5555-------7777------9h9------------------------------|
D|-----5555-----5555-------7777------9h9------------------------------|  x4
A|-----5555-----3333-------5777------7h7------------------------------|
D|-----3333-----------------------------------------------------------|

Barkada trip, barkada, barkada...trip! trip! (4x)


Interlude

e|-----------------------------------------------------|
B|-----------------------------------------------------|
G|----------555-----777--77--7/9---9/11----------------|
D|----55----555-----777--xx--x/x---x/x-----------------|  x4
A|----55----333-----555--55--5/7---7/9-----------------|
D|----33-----------------------------------------------|


Verse2


e|------------------------------------------------------------------|
B|------------------------------------------------------------------|
G|----------------55555555----7h7h7h7h7h7h7h7---9h9h9h9h9h9h9h9-----|
D|----55555555----55555555----7h7h7h7h7h7h7h7---9h9h9h9h9h9h9h9-----|  x2
A|----55555555----33333333----5h5h5h5h5h5h5h5---7h7h7h7h7h7h7h7-----|
D|----33333333------------------------------------------------------|

Tatambling nang tatambling
Magsiswimming kami sa hangin
(kikay trip!) magmemake-up, magmemake-up
(bad trip!) ang magsyotang kakabreak-up lang
Tatagay nang tatagay
Tatambay hanggang wala ng malay
(tulog trip!) matutulog sa kalye
Mananaginip ng simple lang.....

Riff

e|-----------------------------------|
B|-----------------------------------|
G|----------------55----7---5--------|
D|----55555555----55----7---5---5----|
A|----55555555----33----5---3---5----|
D|----33333333------------------3----|


e|-------------------------------------------|
B|-------------------------------------------|
G|----------------55----7---5---99999999-----|
D|----55555555----55----7---5---99999999-----|
A|----55555555----33----5---3---77777777-----|
D|----33333333-------------------------------|


Wait for the Bass then play this

e|---------------------------------------------------------------------------|
B|---------------------------------------------------------------------------|
G|-----------5xx~---7xx~-----------------------------------------------------|  x4
D|----5xx~---5xx~---7xx~-----------------------------------------------------|
A|----5xx~---3xx~---5xx~-----------------------------------------------------|
D|----3xx~-------------------------------------------------------------------|

  e2 mabilis na pag kaskas, pakinggan nyo nalang ung kanta
e|----------------------------|
B|----------------------------|
G|---------5~---7~~~~~--------|
D|----5~---5~---7~~~~~--------|  x3
A|----5~---3~---5~~~~~--------|
D|----3~----------------------|

e|------------------------------|
B|------------------------------|
G|---------5~---7~~~~~---5~-----|
D|----5~---5~---7~~~~~---5~-----|
A|----5~---3~---5~~~~~---3~-----|
D|----3~------------------------|

                        oh ha!

Chorus

e|----------------------------------------------------|
B|----------------------------------------------------|
G|--------------5555-------7777------9h9--------------|
D|-----5555-----5555-------7777------9h9--------------|  x8
A|-----5555-----3333-------5777------7h7--------------|
D|-----3333-------------------------------------------|


Barkada trip, barkada, barkada...trip! trip! (8x)

e|---------------------------------------------|
B|---------------------------------------------|
G|----7h7h7h7h7h7h7-----------9~---------------|
D|----7h7h7h7h7h7h7-----------9~---------------|
A|----5h5h5h5h5h5h5-----------7~---------------|
D|---------------------------------------------|

Well that's it pretty easy song... My version may not be right but I like it.


pero sa lead part sa verse wala akong idea, next time nalang sana magustuhan nyo,
alam kung marami din dyang naghahanap  nitong tab, dahil astig naman talaga ung OST ng barkada
trip ng aizo. Mejo late nga lang ung tab na ito pero wala parin kasi akong makitang tab nito,
at ngaun lang kasi ako may time na kumapa, kaya ginawa ko e2 para sa ating lahat....


sa mga mahilig mag bulabog o naghahanap ng bobulabugin just txt me 09223043275 f**king 
I really like it


****KUNG MAY TANONG KAU?*****COMMENT?****

just free to send me a message in myspace or friendster
but, add me first. para maka send kau ng message. Oh ha!

friendster - mykro85@yahoo.com

myspace - chicoholics@yahoo.com

            
            
Suggest correction
Creating personal tab
Creating personal tab
You can edit any tab online and save it as your Personal.

You can edit, replace or remove any tab part or add personal notes – all changes will be seen only by you.

Personal tabs can be accessed anytime from any device, even offline.
Learn more »
comments
print report bad tab
guest
You may want to rate the tab now too:
select rating
Wanna post a correction for this tab? Suggest correction