Oops, an error
Loading. Please wait.

Trip Na Trip Tab

version 3
version 3

Whole song

by Aizo
273 views 1 this week
no commentswrite comment
1 2 3 4 5
please rate
add to favorites
launch autoscroll
font size
0
reset
how to read this tab
guitar tuner
Tab Pro tools
  • play this tab
  • loop segment
  • change instrument
  • show fretboard
  • metronome
Autoscroll
slow
fast
+/-
esc
set tempo
stop
Intro
e-------------------------|
B-------------------------|
G-----------4s555s7777----| repeat 4x
D-55555555--4s555s7777----|
A-55555555--2s333s5555----|
E-33333333----------------|

Verse 1(tatawa nang tatawa)
Guitar1
e---------------------------------------------------|
B---------------------------------------------------|
G--------------------------------------5555-7777----|
D-55555555--22222222--7h7h7h7h7h7h7h7--5555-7777----|
A-55555555--22222222--7h7h7h7h7h7h7h7--3333-5555----|
E-33333333------------5h5h5h5h5h5h5h5---------------|

Guitar2
e---------------------|
B---------------------|
G---------------------|
D-55554444------------| repeat 2x then
A---------55555555----|
E---------------------|

e-------------------------------|
B-------------------------------|
G------------------5555-7777----|
D-7h7h7h7h7h7h7h7--5555-7777----|
A-7h7h7h7h7h7h7h7--3333-5555----|
E-5h5h5h5h5h5h5h5---------------|

repeat verse 1 2x for guitar 1 and 2

back to intro
e-------------------------|
B-------------------------|
G-----------4s555s7777----| repeat 4x
D-55555555--4s555s7777----|
A-55555555--2s333s5555----|
E-33333333----------------|


Verse 2(food trip! kakain nang kakain)
Guitar1
e---------------------------------------------------|
B---------------------------------------------------|
G--------------------------------------5555-7777----|
D-55555555--22222222--7h7h7h7h7h7h7h7--5555-7777----|
A-55555555--22222222--7h7h7h7h7h7h7h7--3333-5555----|
E-33333333------------5h5h5h5h5h5h5h5---------------|

Guitar2
e---------------------|
B---------------------|
G---------------------|
D-55554444------------| repeat 2x then
A---------55555555----|
E---------------------|

e-------------------------------|
B-------------------------------|
G------------------5555-7777----|
D-7h7h7h7h7h7h7h7--5555-7777----|
A-7h7h7h7h7h7h7h7--3333-5555----|
E-5h5h5h5h5h5h5h5---------------|

repeat verse 2 2x for guitar 1 and 2

Chorus(barkada trip barkada)
Guitar 1 and 2
e---------------------------------|
B---------------------------------|
G--------------------7777---------|
D-5555--2222--7777---7777---------|
A-5555--2222--7777---5555---------|
E-3333--------5555----------------|

back to intro
e-------------------------|
B-------------------------|
G-----------4s555s7777----| repeat 8x
D-55555555--4s555s7777----|
A-55555555--2s333s5555----|
E-33333333----------------|

Verse 3(Tatumbling nang tatumbling)

Guitar1
e---------------------------------------------------|
B---------------------------------------------------|
G--------------------------------------5555-7777----|
D-55555555--22222222--7h7h7h7h7h7h7h7--5555-7777----|
A-55555555--22222222--7h7h7h7h7h7h7h7--3333-5555----|
E-33333333------------5h5h5h5h5h5h5h5---------------|

Guitar2
e---------------------|
B---------------------|
G---------------------|
D-55554444------------| repeat 2x then
A---------55555555----|
E---------------------|

e-------------------------------|
B-------------------------------|
G------------------5555-7777----|
D-7h7h7h7h7h7h7h7--5555-7777----|
A-7h7h7h7h7h7h7h7--3333-5555----|
E-5h5h5h5h5h5h5h5---------------|

repeat verse 3 2x for guitar 1 and 2

bridge
Guitar 1 and 2
e----------------------------------------------|
B----------------------------------------------|
G--------------------------------------7777----| note thats not 1 and 0
D-9999999-791010995555-9999999-791010997777----| its 10th fret
A-9999999-791010995555-9999999-791010995555----|
E-7777777-578-8-773333-7777777-578-8-77--------|

Solo
then here comes the bass
di ko kasi alam yung bass kaya just listen to the song
Bass
e--------|
B--------|
G--------|
D--------| then
A---222--|
E-33---3-|

Guitar 1
e-------------------------|
B-------------------------|
G-----------4s555s7777----|
D-55555555--4s555s7777----|
A-55555555--2s333s5555----|
E-33333333----------------|
repeat this 4x bass and guitar 1
then

Guitar 1
e------------------------------------------|
B------------------------------------------|
G------------------------------------------|
D------4h5-5------4h5-5------4h5-5--5------|
A-2s3s5------2s3s5------2s3s5--------5-5s3-|
E------------------------------------------|

Chorus(barkada trip barkada)
Guitar 1 and 2
e---------------------------------|
B---------------------------------|
G--------------------7777---------|repeat 8x
D-5555--2222--7777---7777---------|
A-5555--2222--7777---5555---------|
E-3333--------5555----------------|

then(trip trip trip)
e--------------------|
B--------------------|
G-7h7h7h7h7h7--5-----|
D-7h7h7h7h7h7--5-----|
A-5h5h5h5h5h7--3-----|
E--------------------|
end

this is my first time to write a tab. hpoe you like it.....
isa ito sa mga favorite song ko........
if you have comments email rimew03@yahoo.com
comments
We did not receive enough feedback on this tab! Please rate:
print report bad tab
1 2 3 4 5
I want to post or [tab]
guest
You may want to rate the tab now too:
select rating
Please do not post tabs as comments. Select "correction" instead!