Oops, an error
Loading. Please wait.

She Was Mine Tab

version 1
version 1

Whole song

276,187 views 228 this week
4 commentsread comments
1 2 3 4 5
excellent!
x 33
add to favorites
launch autoscroll
font size
0
reset
how to read this tab
guitar tuner
Autoscroll
slow
fast
+/-
esc
set tempo
stop
Help us to improve Ultimate-Guitar.com Take our survey!
×
Author
This tab is basically the background guitar part of the whole song and its mostly plucked....

Make sure you single strum (or finger-pick, your choice) on the verse where it goes... 
im looking through these boxes...."

have fun ;D


She was mine - Aj Rafael ft. Jesse Barrera


[Verse]

e|----------x-------x-------x-------x-------x-------x-------x-------x-------|
B|------10--x---10--x-------x---8---x---6---x---6---x-------x---6---x-------|
G|------9---x---9---x---8---x---8---x---7---x---7---x---6---x---6---x-------|
D|------10--x---10--x---8---x---7---x---7---x---7---x---6---x---6---x-------|
A|------8---x---8---x-------x---8---x-------x-------x-------x-------x-------|
E|----------x-------x---8---x-------x---6---x---6---x---6---x---6---x-------|
                ^               ^               ^               ^

REPEAT until CHORUS


[Chorus]

e|----------------x-------------x-------------x-----------------------|
B|----------------x---3-----3---x-------------x---5-----5-------------|
G|------3-----3---x---3-----3---x---5-----5---x---5-----5-------------|
D|------3-----3---x---2-----2---x---5-----5---x---4-----4-------------|
A|----------------x---3-----3---x-------------x---5-----5-------------|
E|------3-----3---x-------------x---5-----5---x-----------------------|
              ^             ^             ^

Lyrics


[Verse]

So I hopped on a train,
3 in the afternoon
I don't know when I'm coming back,
but i hope that its soon
See I never thought (never thought)
that I'd have to leave your side (your side)
Its only physically,
but know that you'll be on my mind, 24 hours at a time
Cause in my eyes,
you were mine (you were mine)


[Chorus]

No matter where you go,
I wont be very far
Cause in my head I'll be right there
where you are
Cause love has no distance baby
Love, love has no distance baby
No, not when it comes to you and me


[Verse]

See she wrote me a letter
Said the weather wasn't better
But she said that she was doing fine
I wanna see you face to face
That's what she wrote to me that day
And i knew that it was all a sign
So I wrote back with this song
Promised to won't be too long
Wanna make up for all our lost time
Cause in my eyes,
you were mine (you were mine)


[Chorus]

*Now at this part, you can either single strum or finger-pick to give that nice slow 
feeling....when it goes to the CHORUS, you get right back on the up-beat tempo.....


[Verse]

So I'm going through these boxes,
My life's gone off track
Cause its been three years
And she hasn't written back
But in my eyes, She's still mine
And I know it sounds so stupid
To be waiting this long
But I'm still in love and
I know I'm not wrong
Cause in my eyes, She was mine

No matter where you go,
I wont be very far
Cause in my head I'll be right there
where you are
Cause love has no distance baby
Love, love has no distance baby
No, not when it comes to you and.....

No matter where you go,
I wont be very far
Cause in my head I'll be right there
where you are
Cause love has no distance baby
Love, love has no distance baby
No, not when it come to you and me....


the end ^_^

sorry if i wasn't clear enough >_< correct me if im off. happy playing :]



************************************

| x  Dead note
| ^ - Indicates that you can play the chord twice (Jesse sometimes does this throughout 
song)

************************************
Suggest correction
comments
print report bad tab
4 comments total. Showing first comments.
0 reply
Jayyrizzle 10 wrote on January 6 2010, 12:22 pm

half step down tuning =D
&& thanks alot for the tab

0 reply
Jayyrizzle 10 wrote on January 6 2010, 08:47 pm

ignore my last comment im retarted haha
thanks again

0 reply
bbeatzs 10 wrote on May 3 2011, 04:12 am

thanx mann, love this song, love these tabs, they sound great :)

guest
You may want to rate the tab now too:
select rating
Please do not post tabs as comments. Select "correction" instead!