Oops, an error
Loading. Please wait.

We Could Happen Tab

version 3
version 3

Whole song

Interactive

7,823 views 6 this week
no commentswrite comment
1 2 3 4 5
2 more votes to show rating
add to favorites
launch autoscroll
font size
0
reset
how to read this tab
guitar tuner
Autoscroll
slow
fast
+/-
esc
set tempo
stop
Help us to improve Ultimate-Guitar.com Take our survey!
×
Author
Difficulty
novice
E|------------------10s12--10-7----------12s10--10---7----------------------|
B|--8--8-10-10s12-----------------8-10-------------------10--8--------------|
G|--------------------------------------------------------------------------|
D|--------------------------------------------------------------------------|
A|--------------------------------------------------------------------------|
E|--------------------------------------------------------------------------|


E|--------------------7s8-7----------------|
B|-7-8-----7-8----7-8--------8--10--8------|
G|-----7~------5~--------------------------|
D|-----------------------------------------|
A|-----------------------------------------|
E|-----------------------------------------|



Here's another version you can play with too. =)

E|------------------10s12--10-7---------------------------------------------|
B|--8--8-10-10s12-----------------8-10--10s12--10--8--7--5------------------|
G|--------------------------------------------------------------------------|
D|--------------------------------------------------------------------------|
A|--------------------------------------------------------------------------|
E|--------------------------------------------------------------------------|


E|---------------------8-7-----------------|
B|-7-8-----7-8----7-8--------8--10--8------|
G|-----7~------5~--------------------------|
D|-----------------------------------------|
A|-----------------------------------------|
E|-----------------------------------------|
Suggest correction
Give kudos to tab author, rate the tab!
1 2 3 4 5
comments
print report bad tab
guest
You may want to rate the tab now too:
select rating
Wanna post a correction for this tab? Suggest correction