Oops, an error
Loading. Please wait.

Devil May Dance Tab

4 views 1 this week
no commentswrite comment
1 2 3 4 5
3 more votes to show rating
add to favorites
launch autoscroll
font size
0
reset
how to read this tab
guitar tuner
Autoscroll
slow
fast
+/-
esc
set tempo
stop
Help us to improve Ultimate-Guitar.com Take our survey!
×
Author
Difficulty
Capo
novice
5th fret
The whole song is based on the Main Riff (Intro, Outro, Interlude, Verse, Chorus), 
only the Solo & Bridge are a little different.
Capo 5 to play along with the original.

[Intro]

e|----------|----------|----------|------------|
B|------1---|------1---|------1---|------1-----|
G|----------|----------|----------|------------|
D|----2---2-|----0---0-|----0---0-|----0-------|
A|-0--------|----------|----------|--------3-2-|
E|----------|-2--------|-3--------|-2----------|   x4

[Verse]

e|----------|----------|----------|------------|
B|------1---|------1---|------1---|------1-----|
G|----------|----------|----------|------------|
D|----2---2-|----0---0-|----0---0-|----0-------|
A|-0--------|----------|----------|--------3-2-|
E|----------|-2--------|-3--------|-2----------|   x2

Even among the holy ones
You're dirtier than that
Leave it alone, take the long way home
Sneak around and let yourself in back

[Chorus]

e|----------|----------|----------|------------|
B|------1---|------1---|------1---|------1-----|
G|----------|----------|----------|------------|
D|----2---2-|----0---0-|----0---0-|----0-------|
A|-0--------|----------|----------|--------3-2-|
E|----------|-2--------|-3--------|-2----------|   x2

All you said was honey give it a chance
Just give it a chance
Just give it a chance
How'd you ever get the devil to dance
Get the devil to dance like that

[Interlude]

e|----------|----------|----------|------------|
B|------1---|------1---|------1---|------1-----|
G|----------|----------|----------|------------|
D|----2---2-|----0---0-|----0---0-|----0-------|
A|-0--------|----------|----------|--------3-2-|
E|----------|-2--------|-3--------|-2----------|   x2

[Verse]

e|----------|----------|----------|------------|
B|------1---|------1---|------1---|------1-----|
G|----------|----------|----------|------------|
D|----2---2-|----0---0-|----0---0-|----0-------|
A|-0--------|----------|----------|--------3-2-|
E|----------|-2--------|-3--------|-2----------|   x2

Open your mouth just to talk me down
You're sincere as any neon sign
Think of the reasons that you brought me here
But nothing ever really comes to mind

[Chorus]

e|----------|----------|----------|------------|
B|------1---|------1---|------1---|------1-----|
G|----------|----------|----------|------------|
D|----2---2-|----0---0-|----0---0-|----0-------|
A|-0--------|----------|----------|--------3-2-|
E|----------|-2--------|-3--------|-2----------|   x2

All you said was honey give it a chance
Just give it a chance
So I gave it a chance
How'd you ever get the devil to dance
Get the devil to dance like that

[Interlude]

e|----------|----------|----------|------------|
B|------1---|------1---|------1---|------1-----|
G|----------|----------|----------|------------|
D|----2---2-|----0---0-|----0---0-|----0-------|
A|-0--------|----------|----------|--------3-2-|
E|----------|-2--------|-3--------|-2----------|   x2

[Solo]

e|----------|----------|----------|------------|
B|------1---|------0---|------0---|---1--3-----|
G|----------|----------|----------|---2--0-----|
D|----2---2-|----2---2-|----0---0-|---3--0-----|
A|-0--------|-3--------|----------|------------|
E|----------|----------|-3--------|--1--3------|   x4

[Bridge]

e|----------|----------|----------|------------|
B|------1---|------1---|------1---|---1--3-----|
G|----------|----------|----------|---2--0-----|
D|----2---2-|----0---0-|----0---0-|---3--0-----|
A|-0--------|----------|----------|------------|
E|----------|-2--------|-3--------|--1--3------|   x4

All the losers on 16th and South Van Ness
They all fall to their knees with rosaries as they confess
Every suitor up by Lafayette and 12th
They don't fool the world, no, they only fool themselves 

[Outro]

e|----------|----------|----------|------------|
B|------1---|------1---|------1---|------1-----|
G|----------|----------|----------|------------|
D|----2---2-|----0---0-|----0---0-|----0-------|
A|-0--------|----------|----------|--------3-2-|
E|----------|-2--------|-3--------|-2----------|
Suggest correction
Give kudos to tab author, rate the tab!
1 2 3 4 5
comments
print report bad tab
guest
You may want to rate the tab now too:
select rating
Wanna post a correction for this tab? Suggest correction