Oops, an error
Loading. Please wait.

Liar Mask Tab

22 views 9 this week
no commentswrite comment
1 2 3 4 5
3 more votes to show rating
add to favorites
launch autoscroll
font size
0
reset
how to read this tab
guitar tuner
Autoscroll
slow
fast
+/-
esc
set tempo
stop
Help us to improve Ultimate-Guitar.com Take our survey!
×
Author
Difficulty
intermediate
About this tab version
Credit to the Source dareka-watashi-no-koe-ga-kikoeru. Was this info helpful? Yes No
e --5--------5----8-6--5------------|----5---|--------------------|--------
B -------6-8----8--------8-6--8-----|--6-----|-8--6--5------------|-6--6-5-
G ----7--------------------------7--|-7------|----------7-5--7-7--|--------
D ----------------------------------|--------|--------------------|--------
A ----------------------------------|--------|--------------------|--------
E ----------------------------------|--------|--------------------|--------
    kuchihateru you ni moyuru tsuki   akatsu   ki ni shizumi yuku   tsukura
e --------------|-------6--5--------|------------------|---------------|--
B ---------5----|-6--8-------8--65--|-6--5-------5-----|-6-6--8--65-6--|-6
G --7-6--6---7--|-------------------|-----7-6--6----7--|---------------|--
D --------------|-------------------|------------------|---------------|--
A --------------|-------------------|------------------|---------------|--
E --------------|-------------------|------------------|---------------|--
    reta kao de   sotto chikadzuite   shinjiru mono wo   yami ni otosu   i
e -----------------|-----6--5--------|------------------|----------------|-
B --5---------5----|-6-8-------6--5--|-6-5--------5-----|-6-6--8--6-5-6--|-
G -----7--6-6---7--|-----------------|------7-6-6----7--|----------------|-
D -----------------|-----------------|------------------|----------------|-
A -----------------|-----------------|------------------|----------------|-
E -----------------|-----------------|------------------|----------------|-
    to ni karamaru   e mono no youni   tada hitasura ni   sora wo a o gu   
e ----5---5-6-8--5--5-5----|-----------------|------------5-|---5---5-6-|-8-
B ------8------------------|-8-6-5---------5-|-6-5--6--8----|------8----|---
G --7----------------------|--------7--6-7---|--------------|-7---------|---
D -------------------------|-----------------|--------------|-----------|---
A -------------------------|-----------------|--------------|-----------|---
E -------------------------|-----------------|--------------|-----------|---
    kurikae-sare no higeki   fukimi ni warau   u-ra no ka o   kore ijou   na
e --6--5-------|---------5-6---5--|-6-5-|-6--5-|-6-5--|------------|-5----
B -------6-----|---6-8-8----------|-----|------|------|-------8-10-|------
G -------------|-8----------------|-----|------|------|---6-9------|---7--
D -------------|------------------|-----|------|------|-7----------|------
A -------------|------------------|-----|------|------|------------|------
E -------------|------------------|-----|------|------|------------|------
    ni hitotsu   nakusanai you ni   kata  na wo  nuku                yami 
e --------5----8-6-5----------|-----5--|----5---|----------8-5--|-8-6--5----
B --6--8----8--------8--6-8---|---6----|------8-|-6-5-6--8------|--------8--
G --------------------------7-|-7------|-7------|---------------|-----------
D ----------------------------|--------|--------|---------------|-----------
A ----------------------------|--------|--------|---------------|-----------
E ----------------------------|--------|--------|---------------|-----------
    ni houmure yogoreta e gao   yariba   no nai   i kari hanate   dore dake 
e --5--|-8------12-8-------|----------10-|----5--|-------------------|------
B -----|-----10------11-10-|-8---8--10---|--6----|-8---6--5----------|----6-
G -----|-------------------|---10--------|-7-----|----------7-5-7-7--|-7----
D -----|-------------------|-------------|-------|-------------------|------
A -----|-------------------|-------------|-------|-------------------|------
E -----|-------------------|-------------|-------|-------------------|------
    no   chi to na-mida wo   nagashitara   inoru   you ni kirisai-te   kyou 
e --5--|-5----------8-5---|-----8-6-5--------|-----8-6-5--------|-----8-6-
B -----|--8-6--5-6-8------|---6-------6h8-6--|---6-------6h8-6--|---6-----
G -----|------------------|-7----------------|-7----------------|-7-------
D -----|------------------|------------------|------------------|---------
A -----|------------------|------------------|------------------|---------
E -----|------------------|------------------|------------------|---------
    mo   akaku someageyou                                                 
e --5--------|-------|---|---|---|-------|---|---|---|-------|---|---|---
B ----6h8-6--|-------|---|---|---|-------|---|---|---|-------|---|---|---
G -----------|-7-7-7-|-7-|-7-|-7-|-7-7-7-|-7-|-7-|-7-|-7-7-7-|-7-|-7-|-7-
D -----------|-------|---|---|---|-------|---|---|---|-------|---|---|---
A -----------|-------|---|---|---|-------|---|---|---|-------|---|---|---
E -----------|-------|---|---|---|-------|---|---|---|-------|---|---|---

h - hammer (Hold onto previous note then strike the h8 note with another finger.)
Suggest correction
Give kudos to tab author, rate the tab!
1 2 3 4 5
comments
print report bad tab
guest
You may want to rate the tab now too:
select rating
Wanna post a correction for this tab? Suggest correction