Oops, an error
Loading. Please wait.

Candi Bass Tab

125 views 1 this week
no commentswrite comment
1 2 3 4 5
please rate
add to favorites
launch autoscroll
font size
0
reset
guitar tuner
Tab Pro tools
  • play this tab
  • loop segment
  • change instrument
  • show fretboard
  • metronome
×
Best way to learn
"Candi"
Autoscroll
slow
fast
+/-
esc
set tempo
stop
Contributor
Tuning
C# G# C# F# A# D#
+++++++++++++++++++++++++
| Akissforjersey- Candi |
+++++++++++++++++++++++++

For You, Candi

Tuning: Drop C# (C#ADG)


Intro
1.
G.|-------------------------|
D.|-------------------------|
A.|-4~----------------------|
C#|-----5~-5~---9~--7~-7~---|

2.
G.|---------------------------------------------------------------------|
D.|---------------------------------------------------------------------|
A.|-11111-----------------------------11111-----------------------------|--x2
C#|-------5~-5555555-44444-0~-0000000-------5~-5555555-44444-0~-0000000-|

Verse
"Letting go..."
3.
G.|-------------------------------------------------|
D.|-------------------------------------------------|
A.|-4~----------------------4~----------------------|--x2
C#|-----5~-5~---9~--7~-7~-------5~-5~---9~--7~-7~---|

Chorus
"Passing time..."
4.
G.|---------------------------------------------------------------------|
D.|---------------------------------------------------------------------|
A.|------------------44444-----------------------------44444------------|--x2
C#|-99999-7~-7777777-------5~-5555555-99999-7~-7777777-------5~-5555555-|

Verse
5.
G.|-----------------------------------------------------------------------------|
D.|-----------------------------------------------------------------------------|
A.|-1111x--1111x--111-----------------------------------------------------------|
C#|------------------5-5555x--5555x--5554-4444x--4444x--4440-0000x--0000x--0000-|

6.
G.|--------------------------------------------------------------------------|
D.|--------------------------------------------------------------------------|
A.|-1111x--1111x--111--------------------------------------------------------|
C#|------------------5-5555x--5555x--5554-4444x--4444x--44400000000-00000000-|

Chorus
"You stole my heart from me..."
7.
G.|---------------------------------------------------------------------|
D.|---------------------------------------------------------------------|
A.|-11111-----------------------------11111-----------------------------|--x2
C#|-------5~-5555555-44444-0~-0000000-------5~-5555555-44444-0~-0000000-|

Verse
8.
G.|----------------------------------------------------------------------------|
D.|----------------------------------------------------------------------------|
A.|----------------------------------------------------------------------------|--x2
C#|-99999999-99999999-77777777-77777777-55555555-55555555-4440x---4440x---4400-|

Chorus
"You stole my heart from me..."
9.
G.|---------------------------------------------------------------------|
D.|---------------------------------------------------------------------|
A.|------------------44444-----------------------------44444------------|--x2
C#|-99999-7~-7777777-------5~-5555555-99999-7~-7777777-------5~-5555555-|

Bridge
"She screams..."
10.
G.|-----------------------------------------------------|
D.|-----------------------------------------------------|
A.|---------------------444-444-444-444-----------------|
C#|-9~--------7~------------------------555-555-555-555-|

11.
G.|-------------------------------------------------------------------|
D.|-------------------------------------------------------------------|
A.|---------------------------------444-444-444-444-------------------|
C#|-999-999-999-999-777-777-777-777-----------------55555555-55555555-|

Chorus
"You stole my heart from me..."
12.
G.|---------------------------------------------------------------------|
D.|---------------------------------------------------------------------|
A.|------------------44444-----------------------------44444------------|--x2
C#|-99999-7~-7777777-------5~-5555555-99999-7~-7777777-------5~-5555555-|

Outro
13.
G.|--------------------------------------------------|
D.|--------------------------------------------------|
A.|-4~------------------4~---4~----------------------|
C#|-----5~-5~----9~--7~----------5~-5~---9~--7~-7~---|

14.
G.|-------------------------------------------------------|
D.|-------------------------------------------------------|
A.|-4~--------4-4~---------4~-4-4-4-4-4-4-4-4-4-4-4-4-4-4-|
C#|----------------------0/-------------------------------|

15.
G.|--------------------------------------------------------------|
D.|--------------------------------------------------------------|
A.|-----------------------------xx4-xx4xx4xx4--------------------|--x4
C#|-xx9-xx9xx9xx9-xx7-xx7xx7xx7---------------xx5x---------------|



+++++++++++++++++++++++++++++++++
| RaiLeff                       |
| Underground__Dora@Hotmail.Com |
+++++++++++++++++++++++++++++++++
comments
We did not receive enough feedback on this tab! Please rate:
print report bad tab
1 2 3 4 5
I want to post or [tab]
guest
You may want to rate the tab now too:
select rating
Please do not post tabs as comments. Select "correction" instead!