Oops, an error
Loading. Please wait.

So It Goes Tab

338 views 1 this week
1 commentread comment
1 2 3 4 5
please rate
add to favorites
launch autoscroll
font size
0
reset
how to read this tab
guitar tuner
Tab Pro tools
  • play this tab
  • loop segment
  • change instrument
  • show fretboard
  • metronome
×
Best way to learn
"So It Goes"
Autoscroll
slow
fast
+/-
esc
set tempo
stop
Difficulty
intermediate
Distorted Intro Riff from So It Goes, by Akron/Family:


e-----------------------------------------------------------------------------------------|
B-----------------------------7--------7-------------------7------------------------------|
G---------7--7-----7------------9--9-----9--7-------9--9-----9--7-------------7--7-----7--|
D---7--9--------9-----9--7---------------------9-------------------9----7--9--------9-----|
A-----------------------------------------------------------------------------------------|
E-----------------------------------------------------------------------------------------|
comments
We did not receive enough feedback on this tab! Please rate:
print report bad tab
1 2 3 4 5
1 comment total.
0 reply
jggeorge311 wrote on December 16 2014, 10:19 pm

Same notes lower:

e------------------------------------------------------------------------------|
B------------------------------------------------------------------------------|
G------------------------------------------------------------------------------|
D----0-0---0-------~4-2-2-4-2-0--~2-2-4-2-0--------0-0---0---------------------|
A-0h2----2--2-0----------------2------------2--0h2-----2-----------------------|
E------------------------------------------------------------------------------|

I want to post or [tab]
guest
You may want to rate the tab now too:
select rating
Please do not post tabs as comments. Select "correction" instead!