Oops, an error
Loading. Please wait.

Morning Sun Tab

10 views 6 this week
no commentswrite comment
1 2 3 4 5
3 more votes to show rating
add to favorites
launch autoscroll
font size
0
reset
how to read this tab
guitar tuner
Autoscroll
slow
fast
+/-
esc
set tempo
stop
Help us to improve Ultimate-Guitar.com Take our survey!
×
(Toda la canción se toca igual con ritmo de trojan ska)

[Intro]
e|---4-4-4-4---6-6-6-6---4-4-4-4---4-4-4-4-----------------------------------|
B|---4-4-4-4---7-7-7-7---6-6-6-6---4-4-4-4-----------------------------------|
G|---4-4-4-4---8-8-8-8---6-6-6-6---4-4-4-4-----------------------------------|
D|---------------------------------------------------------------------------|
A|---------------------------------------------------------------------------|
E|---------------------------------------------------------------------------|

[Verse]
e|---3/4-4-4-4---6-6-6-6---4-4-4-4---4-4-4-4---------------------------------|
B|---3/4-4-4-4---7-7-7-7---6-6-6-6---4-4-4-4---------------------------------|
G|---3/4-4-4-4---8-8-8-8---6-6-6-6---4-4-4-4---------------------------------|
D|---------------------------------------------------------------------------|
A|---------------------------------------------------------------------------|
E|---------------------------------------------------------------------------|


************************************

| /  Slide up

************************************
Suggest correction
Give kudos to tab author, rate the tab!
1 2 3 4 5
comments
print report bad tab
guest
You may want to rate the tab now too:
select rating
Wanna post a correction for this tab? Suggest correction