Oops, an error
Loading. Please wait.

Egyptian Danza bass

version 1
version 1

Whole song

Interactive

40 views 3 this week
no commentswrite comment
1 2 3 4 5
2 more votes to show rating
add to favorites
×
Save as Personal and add changes to this tab that will be seen only by you. Learn more ›
×
You can save this tab as Personal to edit and correct it or add notes. All changes will be seen only by you. Learn more »
launch autoscroll
font size
0
reset
guitar tuner
edit
Autoscroll
slow
fast
+/-
esc
set tempo
stop
12/8
 
[A Section]                                        
G|--------1---------------------------------------|
D|3---4-------4---3---0---------------------------|
A|------------------------4-------2---------------|
E|------------------------------------------------|
                                                   
G|------------------------4/------6---------------|
D|4-------3---------------------------------------|
A|------------------------------------------------|
E|------------------------------------------------|
                                                  
G|------------------------------------------------|
D|------------------------------------------------|
A|4-------4---x---x---x---4-------4---x---x---x---|
E|------------------------------------------------|
                                                   
G|------------------------------------------------|
D|------------------------------------------------|
A|4-------4---x---x---x---4-------4---x---x---x---|
E|------------------------------------------------| 
                                                   
G|--------1---------------------------------------|
D|3---4-------4---3---0---------------------------|
A|------------------------4-------2---------------|
E|------------------------------------------------|
                                                   
G|------------------------4/------6---------------|
D|4-------3---------------------------------------|
A|------------------------------------------------|
E|------------------------------------------------| 
                                                   
G|------------------------------------------------|
D|--------------------------------------------0---|
A|4-------4---x---x---x---4---2---4---2-----------|
E|------------------------------------------------|
                                                    
G|------------------------------------------------|
D|--------------------------------------------0---|
A|4-------4---x---x---x---4---2---4---2-----------|
E|------------------------------------------------|
                                                    
G|--------1---------------------------------------|
D|3---4-------4---3---0---------------------------|
A|------------------------4-------2---------------|
E|------------------------------------------------|
                                                   
G|------------------------4/------6---------------|
D|4-------3---------------------------------------|
A|------------------------------------------------|
E|------------------------------------------------| 
                                                   
G|------------------------------------------------|
D|------------------------0-----------0-----------|
A|4-------4---x---x---x-------4---2-------4---2---|
E|------------------------------------------------| 
                                                   
G|------------------------------------------------|
D|------------------------0-----------0-----------|
A|4-------4---x---x---x-------4---2-------4---2---|
E|------------------------------------------------|
                                                   
G|--------------------------------------------1---|
D|------------------------0-------0---3---4-------|
A|4-------4---x---x---x---------------------------|
E|------------------------------------------------|
                                                    
G|--------------------------------------------1---|
D|------------------------0-------0---3---4-------|
A|4-------4---x---x---x---------------------------|
E|------------------------------------------------|
                                                    
G|--------------------------------------------1---|
D|------------------------0-------0---3---4-------|
A|4-------4---x---x---x---------------------------|
E|------------------------------------------------|
                                                   
G|------------------------------------------------|
D|------------------------0-------3-------4-------|
A|4-------4-----------0---------------------------|
E|------------------------------------------------|
                                                   
G|------------------------------------------------|
D|------------------------------------0---2---4---|
A|2-------2---x---x---x---4-------4---------------|
E|------------------------------------------------| 
                                                   
G|------------------------------------------------|
D|------------------------------------0---2---4---|
A|2-------2---x---x---x---4-------4---------------|
E|------------------------------------------------|
                                                   
G|------------------------------------------------|
D|------------------------------------0---2---4---|
A|2-------2---x---x---x---4-------4---------------|
E|------------------------------------------------|
                                                    
G|------------------------------------------------|
D|----------------------------4-------------------|
A|2-------2---0-----------------------2-------3---|
E|------------------------------------------------|
                                                    
G|------------------------------------------------|
D|------------------------0---0-------------------|
A|4-------4---x---x---x-----------4-------2-------|
E|------------------------------------------------|
  
[B Section]                                                 
G|------------------------------------------------|
D|------------------------2/--4-------------------|
A|0-------0---x---x---x---------------------------|
E|------------------------------------------------|
                                                   
G|------------------------------------------------|
D|------------------------2/--4-------------------|
A|0-------0---x---x---x---------------------------|
E|------------------------------------------------| 
                                                   
G|------------------------------------------------|
D|------------------------2/--4-------------------|
A|0-------0---x---x---x---------------------------|
E|------------------------------------------------|
                                                   
G|------------------------------------------------|
D|------------------------2/--4-------------------|
A|0-------0---x---x---x---------------------------|
E|------------------------------------------------|
                                                   
G|------------------------------------------------|
D|1---1-----------1---1-----------1---1-----------|
A|------------------------------------------------|
E|--------4---------------4---------------4-------|
                                                   
G|------------------------------------------------|
D|------------------------------------------------|
A|------------------------------------------------|
E|0-------2---x---x---x---2-----------------------|
                                                    
G|------------------------------------------------|
D|------------------------------------------------|
A|------------------------------------------------|
E|0-------2---x---x---x---2-----------------------|
                                                   
G|------------------------------------------------|
D|------------------------------------------------|
A|------------------------------------------------|
E|0-------2---x---x---x---2-----------------------|
                                                    
G|2---1-------------------------------------------|
D|------------2---1-------x---4-------2---2-------|
A|------------------------------------------------|
E|------------------------------------------------|
                                                   
G|------------------------------------------------|
D|------------------------0-------0---------------|
A|4-------4---------------------------------------|
E|------------------------------------------------|
                                                   
G|------------------------------------------------|
D|------------------------------------------------|
A|------------------------------------------------|
E|------------------------------------------------|
                                                    
G|------------------------------------------------|
D|------------------------0-------0-----------3---|
A|4-------4---------------------------------------|
E|------------------------------------------------|
                                                    
G|----1---2---4---5---4---2---1-------------------|
D|4-------------------------------4---3---0-------|
A|--------------------------------------------2---|
E|------------------------------------------------|
                                                   
G|------------------------------------------------|
D|------------------------------------------------|
A|0-----------------------------------------------|
E|------------------------4-----------------------|
                                                   
G|------------------------------------------------|
D|1-----------------------2---1-------------------|
A|--------------------------------4---2-----------|
E|------------------------------------------------|
                                                    
G|------------------------------------------------|
D|------------------------------------------------|
A|4-------4---------------4-------4---------------|
E|------------------------------------------------|
                                                    
G|------------------------------------------------|
D|------------------------------------------------|
A|4-------4---------------4-------4---------------|
E|------------------------------------------------|
                                                   
G|--------------------------------------------1---|
D|------------------------0-------0---3---4-------|
A|4-------4---x---x---x---------------------------|
E|------------------------------------------------|
                                                   
G|--------------------------------------------1---|
D|------------------------0-------0---3---4-------|
A|4-------4---x---x---x---------------------------|
E|------------------------------------------------| 
                                                   
G|--------------------------------------------1---|
D|------------------------0-------0---3---4-------|
A|4-------4---x---x---x---------------------------|
E|------------------------------------------------|
                                                   
G|------------------------------------------------|
D|------------------------0-------3-------4-------|
A|4-------4-----------0---------------------------|
E|------------------------------------------------|
                                                   
G|------------------------------------------------|
D|------------------------------------0---2---4---|
A|2-------2---x---x---x---4-------4---------------|
E|------------------------------------------------|
                                                    
G|------------------------------------------------|
D|------------------------------------0---2---4---|
A|2-------2---x---x---x---4-------4---------------|
E|------------------------------------------------|
                                                   
G|------------------------------------------------|
D|------------------------------------0---2---4---|
A|2-------2---x---x---x---4-------4---------------|
E|------------------------------------------------|
                                                   
G|------------------------------------------------|
D|----------------------------4-------------------|
A|2-------2---x-----------------------2-------3---|
E|------------------------------------------------|
                                                   
G|------------------------------------------------|
D|------------------------0---0-------------------|
A|4-------4---x---x---x-----------4-------2-------|
E|------------------------------------------------|
                                                   
G|------------------------------------------------|
D|------------------------2/--4-------------------|
A|0-------0---x---x---x---------------------------|
E|------------------------------------------------|
                                                    
G|------------------------------------------------|
D|------------------------2/--4-------------------|
A|0-------0---x---x---x---------------------------|
E|------------------------------------------------|
                                                    
G|------------------------------------------------|
D|------------------------2/--4-------------------|
A|0-------0---x---x---x---------------------------|
E|------------------------------------------------|
                                                   
G|------------------------------------------------|
D|------------------------2/--4-------------------|
A|0-------0---x---x---x---------------------------|
E|------------------------------------------------|
                                                   
G|------------------------------------------------|
D|1---1-----------1---1-----------1---1-----------|
A|------------------------------------------------|
E|--------4---------------4---------------4-------|
                                                   
G|------------------------------------------------|
D|------------------------------------------------|
A|------------------------------------------------|
E|0-------2---x---x---x---2-----------------------| 
                                                   
G|------------------------------------------------|
D|------------------------------------------------|
A|------------------------------------------------|
E|0-------2---x---x---x---2-----------------------|
                                                   
G|------------------------------------------------|
D|------------------------------------------------|
A|------------------------------------------------|
E|0-------2---x---x---x---2-----------------------|
                                                    
G|2---1-------------------------------------------|
D|------------2---1-------0---4-------2---2-------|
A|------------------------------------------------|
E|------------------------------------------------|
 
[C Section]                                                                 
G|--------------------------------|--------------------------------|
D|--------------------------------|--------------------------------|
A|4-------------------------------|------------0-----------4-------|
E|------------2-----------4-------|--------------------------------|
                                                                    
G|--------------------------------|--------------------------------|
D|--------------------------------|--------------------------------|
A|4-------------------------------|----0-------0---2---------------|
E|------------2-----------4-------|------------------------4-------| 
                                                                    
G|--------------------------------|--------------------------------|
D|--------------------------------|--------------------------------|
A|4-------------------------------|------------0-----------4-------|
E|------------2-----------4-------|--------------------------------|
                                                                    
G|--------------------------------|----------------4---1-----------|
D|--------------------------------|------------------------2-------|
A|4-------------------------------|----0-------0---------------0---|
E|------------2-----------4-------|--------------------------------|
    
[D Section]                                                               
G|--------------------------------|----------------2---------------|
D|------------4---------------3---|------------------------4-------|
A|4-------------------4-----------|------------4-------------------|
E|--------------------------------|--------------------------------|
                                                                    
G|1---------------1---------------|--------------------------------|
D|------------4-------2-----------|--------2-----------------------|
A|------------------------4---2---|0---------------------------4---|
E|--------------------------------|------------4-------------------|
                                                                    
G|----------------4---1-----------|--------------------------------|
D|------------------------2---0---|------------4---------------3---|
A|4-------------------------------|4-------------------4-----------|
E|--------------------------------|--------------------------------|
                                                                       
G|----------------2---------------|1---------------1---------------|
D|------------------------4-------|------------4-------2-----------|
A|------------4-------------------|------------------------4---2---|
E|--------------------------------|--------------------------------|
                                                                     
G|--------------------------------|--------------------------------|
D|--------2-----------------------|--------------------------------|
A|0---------------------------4---|4-------------------------------|
E|------------4-------------------|------------2-----------4-------|
                                                                    
G|--------------------------------|--------------------------------|
D|--------------------------------|--------------------------------|
A|------------0-----------4-------|--------------------------------|
E|--------------------------------|------------2-----------4-------|
                                                                     
G|--------------------------------|--------------------------------|
D|--------------------------------|--------------------------------|
A|----0-------0---2---------------|4-------------------------------|
E|------------------------4-------|------------2-----------4-------|
                                                                     
G|--------------------------------|--------------------------------|
D|--------------------------------|--------------------------------|
A|------------0-----------4-------|--------------------------------|
E|--------------------------------|------------2-----------4-------|
 
                                  [D Section]                                
G|--------------------------------|--------------------------------|
D|--------------------------------|--------------------------------|
A|----0-------0---2---------------|0-----------0-----------0-------|
E|------------------------4-------|--------------------------------| 
                                                                    
G|--------------------------------|--------------------------------|
D|--------------------------------|--------------------------------|
A|------------------------2-------|0-----------0-----------0-------|
E|------------4-------------------|--------------------------------|
                                                                    
G|----------------4---------------|--------------------------------|
D|--------------------------------|--------------------------------|
A|--------------------------------|0-----------0-----------0-------|
E|--------------------------------|--------------------------------|
                                                                    
G|--------------------------------|--------------------------------|
D|--------------------------------|--------------------------------|
A|------------------------2-------|0-----------0-----------0-------|
E|------------4-------------------|--------------------------------|
 
                                  [E Section]                                
G|----------------4---------------|--------------------------------|
D|--------------------------------|--------------------------------|
A|--------------------------------|4-------------------------------|
E|--------------------------------|------------2-----------4-------|
                                                                    
G|--------------------------------|--------------------------------|
D|--------------------------------|--------------------------------|
A|------------0-----------4-------|--------------------------------|
E|--------------------------------|------------2-----------4-------|
                                                                    
G|--------------------------------|--------------------------------|
D|--------------------------------|--------------------------------|
A|----0-------0---2---------------|4-------------------------------|
E|------------------------4-------|------------2-----------4-------|
                                                                     
G|--------------------------------|--------------------------------|
D|--------------------------------|--------------------------------|
A|------------0-----------4-------|--------------------------------|
E|--------------------------------|------------2-----------4-------| 
                                                                    
G|--------------------------------|--------------------------------|
D|--------------------------------|--------------------------------|
A|----0-------0---2---------------|0-----------0-----------0-------|
E|------------------------4-------|--------------------------------|
                                                                    
G|--------------------------------|--------------------------------|
D|--------------------------------|--------------------------------|
A|------------------------2-------|0-----------0-----------0-------|
E|------------4-------------------|--------------------------------|
                                                                  
G|----------------4---------------|--------------------------------|
D|--------------------------------|--------------------------------|
A|--------------------------------|0-----------0-----------0-------|
E|--------------------------------|--------------------------------|
                                                                    
G|--------------------------------|--------------------------------|
D|--------------------------------|--------------------------------|
A|------------------------2-------|0-----------0-----------0-------|
E|------------4-------------------|--------------------------------|
 
                                  [D Section]                                
G|----------------4---------------|--------------------------------|
D|--------------------------------|--------------------------------|
A|--------------------------------|4-------------------------------|
E|--------------------------------|------------2-----------4-------| 
                                                                    
G|--------------------------------|--------------------------------|
D|--------------------------------|--------------------------------|
A|------------0-----------4-------|--------------------------------|
E|--------------------------------|------------2-----------4-------|
                                                                    
G|--------------------------------|--------------------------------|
D|--------------------------------|--------------------------------|
A|----0-------0---2---------------|4-------------------------------|
E|------------------------4-------|------------2-----------4-------|
                                                                     
G|--------------------------------|--------------------------------|
D|--------------------------------|--------------------------------|
A|------------0-----------4-------|--------------------------------|
E|--------------------------------|------------2-----------4-------|
                                                                     
G|--------------------------------|--------------------------------|
D|--------------------------------|--------------------------------|
A|----0-------0---2---------------|0-----------0-----------0-------|
E|------------------------4-------|--------------------------------|
 
                                  [E Section]                                
G|--------------------------------|--------------------------------|
D|--------------------------------|--------------------------------|
A|------------------------2-------|0-----------0-----------0-------|
E|------------4-------------------|--------------------------------|
                                                                    
G|----------------4---------------|--------------------------------|
D|--------------------------------|--------------------------------|
A|--------------------------------|0-----------0-----------0-------|
E|--------------------------------|--------------------------------|
                                                                    
G|--------------------------------|--------------------------------|
D|--------------------------------|--------------------------------|
A|------------------------2-------|0-----------0-----------0-------|
E|------------4-------------------|--------------------------------|
                                                                                    
G|----------------4---------------|
D|--------------------------------|
A|--------------------------------|
E|--------------------------------|

[F Section]
G|------------------------------------------------|
D|------------------------------------------------|
A|4-------4---x---x---x---4-------4---x---x---x---|
E|------------------------------------------------|
                                                   
G|------------------------------------------------|
D|------------------------------------------------|
A|4-------4---x---x---x---4-------4---x---x---x---|
E|------------------------------------------------|
                                                    
G|--------1---------------------------------------|
D|3---4-------4---3---0---------------------------|
A|------------------------4-------2---------------|
E|------------------------------------------------|
                                                   
G|------------------------4/------6---------------|
D|4-------3---------------------------------------|
A|------------------------------------------------|
E|------------------------------------------------|
                                                   
G|------------------------------------------------|
D|--------------------------------------------0---|
A|4-------4---x---x---x---4---2---4---2-----------|
E|------------------------------------------------|
                                                   
G|------------------------------------------------|
D|--------------------------------------------0---|
A|4-------4---x---x---x---4---2---4---2-----------|
E|------------------------------------------------|
                                                   
G|--------1---------------------------------------|
D|3---4-------4---3---0---------------------------|
A|------------------------4-------2---------------|
E|------------------------------------------------|
                                                   
G|------------------------4/------6---------------|
D|4-------3---------------------------------------|
A|------------------------------------------------|
E|------------------------------------------------|
                                                   
G|------------------------------------------------|
D|------------------------------------------------|
A|2-------2---2---x---x---2-------2---x---x---x---|
E|------------------------------------------------|
                                                  
G|------------------------------------------------|
D|------------------------------------------------|
A|2-------2---2---x---x---2-------2---x---x---x---|
E|------------------------------------------------|
                                                    
G|------------------------------------------------|
D|1---2---4---2---1-------------------------------|
A|--------------------4---2-------0---------------|
E|------------------------------------------------|
                                                    
G|------------------------------------------------|
D|2-------1---------------------------------------|
A|------------------------2-------0---------------|
E|------------------------------------------------|
                                                   
G|------------------------------------------------|
D|------------------------------------------------|
A|2-------2---2---x---x---2-------2---x---x---x---|
E|------------------------------------------------|
                                                    
G|------------------------------------------------|
D|------------------------------------------------|
A|2-------2---2---x---x---2-------2---x---x---x---|
E|------------------------------------------------|
                                                    
G|------------------------------------------------|
D|1---2---4---2---1-------------------------------|
A|--------------------4---2-------0---------------|
E|------------------------------------------------|
                                                   
G|------------------------------------------------|
D|2-------1---------------------------------------|
A|------------------------2-------0---------------|
E|------------------------------------------------|
   
[G Section]                                              
G|------------------------------------------------|
D|--------1---------------1---1-----------1-------|
A|------------------------------------------------|
E|4---------------4---------------4---------------|
                                                   
G|------------------------------------------------|
D|--------2---------------2---2-----------2-------|
A|0-------------------0-----------0---------------|
E|------------------------------------------------|
                                                  
G|------------------------------------------------|
D|------------------------------------------------|
A|4-------4---x---x---x---4-------4---x---x---x---|
E|------------------------------------------------|
                                                   
G|------------------------------------------------|
D|------------------------------------------------|
A|4-------4---x---x---x---4-------4---x---x---x---|
E|------------------------------------------------|
                                                   
G|--------1---------------------------------------|
D|3---4-------4---3---0---------------------------|
A|------------------------4-------2---------------|
E|------------------------------------------------|
                                                    
G|------------------------4-------6---------------|
D|4-------3---------------------------------------|
A|------------------------------------------------|
E|------------------------------------------------|
                                                    
G|------------------------------------------------|
D|--------------------------------------------0---|
A|4-------4---x---x---x---4---2---4---2-----------|
E|------------------------------------------------|
                                                    
G|------------------------------------------------|
D|--------------------------------------------0---|
A|4-------4---x---x---x---4---2---4---2-----------|
E|------------------------------------------------|
                                                    
G|--------1---------------------------------------|
D|3---4-------4---3---0---------------------------|
A|------------------------4-------2---------------|
E|------------------------------------------------|
                                                    
G|------------------------4-------6---------------|
D|4-------3---------------------------------------|
A|------------------------------------------------|
E|------------------------------------------------|
                                                    
G|------------------------------------------------|
D|------------------------------------------------|
A|2-------2---2---x---x---2-------2---x---x---x---|
E|------------------------------------------------|
                                                   
G|------------------------------------------------|
D|------------------------------------------------|
A|2-------2---2---x---x---2-------2---x---x---x---|
E|------------------------------------------------|
                                                    
G|------------------------------------------------|
D|1---2---4---2---1-------------------------------|
A|--------------------4---2-------0---------------|
E|------------------------------------------------|
                                                   
G|------------------------------------------------|
D|2-------1---------------------------------------|
A|------------------------2-------0---------------|
E|------------------------------------------------|
                                                   
G|------------------------------------------------|
D|------------------------------------------------|
A|2-------2---2---x---x---2-------2---x---x---x---|
E|------------------------------------------------|
                                                    
G|------------------------------------------------|
D|------------------------------------------------|
A|2-------2---2---x---x---2-------2---x---x---x---|
E|------------------------------------------------|
                                                   
G|------------------------------------------------|
D|1---2---4---2---1-------------------------------|
A|--------------------4---2-------0---------------|
E|------------------------------------------------|
                                                    
G|------------------------------------------------|
D|2-------1---------------------------------------|
A|------------------------2-------0---------------|
E|------------------------------------------------|
                                                   
G|------------------------------------------------|
D|--------1---------------1---1-----------1-------|
A|------------------------------------------------|
E|4---------------4---------------4---------------|
                                                    
G|------------------------------------------------|
D|--------2---------------2---2-----------2-------|
A|0-------------------0-----------0---------------|
E|------------------------------------------------|
                                                    
G|6-------6---x---x---x---7-------7---x---x---x---|
D|------------------------------------------------|
A|------------------------------------------------|
E|------------------------------------------------|
                                                    
G|------------------------------------------------|
D|------------------------------------------------|
A|------------------------------------------------|
E|------------------------------------------------|
   
[Solo Keys]                                                
G|------------------------------------------------|
D|------------------------------------------------|
A|4-------4---x---x---x---4-------4---x---x---x---|
E|------------------------------------------------|
                                                    
G|------------------------------------------------|
D|------------------------------------------------|
A|4-------4---x---x---x---4-------4---x---x---x---|
E|------------------------------------------------|
                                                    
G|--------1---------------------------------------|
D|3---4-------4---3---0---------------------------|
A|------------------------4-------2---------------|
E|------------------------------------------------|
                                                   
G|------------------------4-------6---------------|
D|4-------3---------------------------------------|
A|------------------------------------------------|
E|------------------------------------------------|
 
G|------------------------------------------------|
D|--------------------------------------------0---|
A|4-------4---x---x---x---4---2---4---2-----------|
E|------------------------------------------------|
                                                   
G|------------------------------------------------|
D|--------------------------------------------0---|
A|4-------4---x---x---x---4---2---4---2-----------|
E|------------------------------------------------| 
                                                   
G|--------1---------------------------------------|
D|3---4-------4---3---0---------------------------|
A|------------------------4-------2---------------|
E|------------------------------------------------|
                                                    
G|------------------------4-------6---------------|
D|4-------3---------------------------------------|
A|------------------------------------------------|
E|------------------------------------------------|
                                                   
G|------------------------------------------------|
D|------------------------------------------------|
A|2-------2---2---x---x---2-------2---x---x---x---|
E|------------------------------------------------|
                                                    
G|------------------------------------------------|
D|------------------------------------------------|
A|2-------2---2---x---x---2-------2---x---x---x---|
E|------------------------------------------------|
                                                    
G|------------------------------------------------|
D|1---2---4---2---1-------------------------------|
A|--------------------4---2-------0---------------|
E|------------------------------------------------|
                                                    
G|------------------------------------------------|
D|2-------1---------------------------------------|
A|------------------------2-------0---------------|
E|------------------------------------------------|
  
[H Section]                                               
G|------------------------------------------------|
D|------------------------------------------------|
A|2-------2---2---x---x---2-------2---x---x---x---|
E|------------------------------------------------|
                                                   
G|------------------------------------------------|
D|------------------------------------------------|
A|2-------2---2---x---x---2-------2---x---x---x---|
E|------------------------------------------------| 
                                                   
G|------------------------------------------------|
D|1---2---4---2---1-------------------------------|
A|--------------------4---2-------0---------------|
E|------------------------------------------------| 
                                                   
G|------------------------------------------------|
D|2-------1---------------------------------------|
A|------------------------2-------0---------------|
E|------------------------------------------------| 
                                                   
G|------------------------------------------------|
D|--------1---------------1---1-----------1-------|
A|------------------------------------------------|
E|4---------------4---------------4---------------|
                                                   
G|------------------------------------------------|
D|--------2---------------2---2-----------2-------|
A|0-------------------0-----------0---------------|
E|------------------------------------------------| 
                                                   
G|------------------------------------------------|
D|------------------------------------------------|
A|------------------------------------------------|
E|------------------------------------------------|
                                                   
G|------------------------------------------------|
D|------------------------------------------------|
A|------------------------------------------------|
E|------------------------------------------------|
                                                    
G|------------------------------------------------|
D|------------------------------------------------|
A|4-------4---x---x---x---4-------4---x---x---x---|
E|------------------------------------------------|
                                                   
G|------------------------------------------------|
D|------------------------------------------------|
A|------------------------------------------------|
E|------------------------------------------------|
   
[I Section]                                                
G|--------1---------------1-----------------------|
D|------------------------------------------------|
A|4---------------4-------------------------------|
E|------------------------------------------------|
                                                   
G|------------------------------------------------|
D|------------------------------------4---4---4---|
A|------------------------------------------------|
E|------------------------------------------------|
                                                    
G|------------------------------------------------|
D|4---4---4---4---4---4---------------------------|
A|------------------------------------------------|
E|------------------------2-----------------------|
                                                   
G|------------------------7-------6---------------|
D|------------------------------------------------|
A|------------------------------------------------|
E|------------------------------------------------|
                                                   
G|------------------------------------------------|
D|------------------------------------------------|
A|0-----------------------------------------------|
E|--------4---------------------------------------|
                                                   
G|------------------------------------------------|
D|------------------------------------------------|
A|0-----------------------------------------------|
E|------------------------------------------------|
                                                                            
G|------------------------|-----------------------|
D|------------------------|-----------------------|
A|3-------2-------0-------|-----------------------|
E|------------------------|4----------------------|
                                                   
G|------------------------|-----------------------|
D|------------------------|-----------------------|
A|0-----------------------|3-------2-------0------|
E|------------------------|-----------------------| 
                                                                            
G|------------------------------------------------|
D|------------------------------------------------|
A|------------------------------------------------|
E|4---4---4---4---4---4---4---4---4---4---4---4---|
                                                   
G|------------------------13--11--10--7---6---4---|
D|------------------------------------------------|
A|------------------------------------------------|
E|------------------------------------------------| 
                                                   
G|------------------------2---1-------------------|
D|--------------------------------4---2---0-------|
A|--------------------------------------------4---|
E|------------------------------------------------|
                                                   
G|------------------------------------------------|
D|0-----------------------------------------------|
A|--------2---------------4-------0---------------|
E|------------------------------------------------| 
                                                   
G|------------------------------------------------|
D|------------------------------------------------|
A|2-----------------------------------------------|
E|--------4---4---4---4---4---4---4---4---4---4---|
                                                    
G|------------------------------------------------|
D|------------------------------------------------|
A|------------------------------------------------|
E|4-----------------------------------------------|
  
[J Section]                                               
G|--------------------------------6---6-----------|
D|------------------------------------------------|
A|------------------------------------------------|
E|------------------------------------------------|
                                                   
G|------------------------------------------------|
D|------------------------------------------------|
A|4-------4---x---x---x---4-------4---x---x---x---|
E|------------------------------------------------|
                                                    
G|------------------------------------------------|
D|------------------------------------------------|
A|4-------4---x---x---x---4-------4---x---x---x---|
E|------------------------------------------------|
                                                   
G|--------------------------------------------1---|
D|------------------------0-------0---3---4-------|
A|4-------4---x---x---x---------------------------|
E|------------------------------------------------|
                                                   
G|--------------------------------------------1---|
D|------------------------0-------0---3---4-------|
A|4-------4---x---x---x---------------------------|
E|------------------------------------------------| 
                                                   
G|--------------------------------------------1---|
D|------------------------0-------0---3---4-------|
A|4-------4---x---x---x---------------------------|
E|------------------------------------------------|
                                                    
G|------------------------------------------------|
D|------------------------0-------3-------4-------|
A|4-------4-----------0---------------------------|
E|------------------------------------------------| 
                                                   
G|------------------------------------------------|
D|------------------------------------0---2---4---|
A|2-------2---x---x---x---4-------4---------------|
E|------------------------------------------------|
                                                   
G|------------------------------------------------|
D|------------------------------------0---2---4---|
A|2-------2---x---x---x---4-------4---------------|
E|------------------------------------------------|
                                                    
G|------------------------------------------------|
D|------------------------------------0---2---4---|
A|2-------2---x---x---x---4-------4---------------|
E|------------------------------------------------|
                                                    
G|------------------------------------------------|
D|----------------------------4-------------------|
A|2-------2---0-----------------------2-------3---|
E|------------------------------------------------|
                                                    
G|------------------------------------------------|
D|------------------------4---4-------------------|
A|4-------------------------------2-------4-------|
E|------------------------------------------------|
                                                  
G|------------------------------------------------|
D|------------------------2/--4-------------------|
A|0-----------------------------------------------|
E|------------------------------------------------|
                                                   
G|------------------------------------------------|
D|------------------------2/--4-------------------|
A|0-------------------0---------------------------|
E|------------------------------------------------|
                                                    
G|------------------------------------------------|
D|------------------------------------------------|
A|2-------------------2---4-----------------------|
E|------------------------------------------------|
                                                   
G|------------------------------------------------|
D|------------------------------------------------|
A|------------------------------------------------|
E|0---2-------------------2-----------------------|
                                                    
G|--------4-----------------------6---------------|
D|------------------------------------------------|
A|2---------------2-------4---------------4-------|
E|------------------------------------------------| 
                                                   
G|------------------------2-------1---------------|
D|--------4-------3-------------------------------|
A|2---------------------------------------4-------|
E|------------------------------------------------|
                                                   
G|------------------------2-------1---------------|
D|--------4-------3-------------------------------|
A|2---------------------------------------4-------|
E|------------------------------------------------|
                                                   
G|4-----------------------------------6-----------|
D|------------------------------------------------|
A|2-----------------------------------4-----------|
E|------------------------------------------------|
                                                   
G|------------------------------------------------|
D|------------------------------------------------|
A|------------------------------------------------|
E|------------------------------------------------|
                                                   
G|------------------------------------------------|
D|0-----------------------0---2---4---0-----------|
A|----2---4---0---2---4-------------------2-------|
E|--------------------------------------------4---|
                                                   
G|------------------------------------------------|
D|------------------------------------------------|
A|0-----------------------------------------------|
E|------------------------------------------------|
                                                    
G|------------------------------------------------|
D|6-----------------------------------------------|
A|4-----------------------------------------------|
E|4-----------------------------------------------|
                                                    
G|------------------------------------------------|
D|------------------------------------------------|
A|------------------------------------------------|
E|------------------------------------------------|
                                                   
G|------------------------------------------------|
D|------------------------------------------------|
A|------------------------------------------------|
E|------------------------------------------------|
                                                   
G|------------------------------------------------|
D|------------------------------------------------|
A|------------------------------------------------|
E|------------------------------------------------|
                                                                    
G|--------------------------------|--------------------------------|
D|--------------------------------|--------------------------------|
A|--------------------------------|--------------------------------|
E|--------------------------------|--------------------------------|
  
[Outro]                                                               
G|------------6-------------------|------------6-------------------|
D|--------6-------6-----------6---|--------6-------6-----------6---|
A|----4---------------4-----------|----4---------------4-----------|
E|4-----------------------4-------|4-----------------------4-------|
                                                                     
G|------------6-------------------|------------6-------------------|
D|--------6-------6-----------6---|--------6-------6-----------6---|
A|----4---------------4-----------|----4---------------4-----------|
E|4-----------------------4-------|4-----------------------4-------|
                                                                     
G|------------6-------------------|------------6-------------------|
D|--------6-------6-----------6---|--------6-------6-----------6---|
A|----4---------------4-----------|----4---------------4-----------|
E|4-----------------------4-------|4-----------------------4-------|
                                                                    
G|------------6-------------------|------------6-------------------|
D|--------6-------6-----------6---|--------6-------6-----------6---|
A|----4---------------4-----------|----4---------------4-----------|
E|4-----------------------4-------|4-----------------------4-------| 
                                                                    
G|------------6-------------------|------------6-------------------|
D|--------6-------6-----------6---|--------6-------6-----------6---|
A|----4---------------4-----------|----4---------------4-----------|
E|4-----------------------4-------|4-----------------------4-------|
                                                                     
G|------------6-------------------|------------6-------------------|
D|--------6-------6-----------6---|--------6-------6-----------6---|
A|----4---------------4-----------|----4---------------4-----------|
E|4-----------------------4-------|4-----------------------4-------| 
                                                                    
G|------------6-------------------|------------6-------------------|
D|--------6-------6-----------6---|--------6-------6-----------6---|
A|----4---------------4-----------|----4---------------4-----------|
E|4-----------------------4-------|4-----------------------4-------|
 

************************************

| /  Slide up
| x  Dead note

************************************

            
            
Suggest correction
Creating personal tab
Creating personal tab
You can edit any tab online and save it as your Personal.

You can edit, replace or remove any tab part or add personal notes – all changes will be seen only by you.

Personal tabs can be accessed anytime from any device, even offline.
Learn more »
Give kudos to tab author, rate the tab!
1 2 3 4 5
comments
print report bad tab
guest
You may want to rate the tab now too:
select rating
Wanna post a correction for this tab? Suggest correction