Oops, an error
Loading. Please wait.
We have an official Lets Stay Together tab made by UG professional guitarists. Check out the tab »
×
22 views 1 this week
no commentswrite comment
1 2 3 4 5
2 more votes to show rating
add to favorites
×
Save as Personal and add changes to this tab that will be seen only by you. Learn more ›
×
You can save this tab as Personal to edit and correct it or add notes. All changes will be seen only by you. Learn more »
launch autoscroll
font size
0
reset
guitar tuner
edit
Autoscroll
slow
fast
+/-
esc
set tempo
stop
101 BPM
4/4

[Intro]                                                            
C|X-------X-------X-------X-------|X-------X-------X---------------|
H|--------------------------------|------------------------x-------|
T|--------------------------------|--------------------x-----------|
S|--------x---------------x-------|--------x-------------------x---|
B|0---------------0---0-----------|0---------------0---------------| 
                                                                    
C|X-------X-------X-------X-------|X-------X-------X---------------|
H|--------------------------------|------------------------x-------|
T|--------------------------------|--------------------x-----------|
S|--------x---------------x-------|--------x-------------------x---|
B|0---0-----------0---0-----------|0---------------0---------------|
 
[Verse]                                                            
C|--------------------------------|--------------------------------|
H|x---x---x---x---x---x---x---x---|x---x---x---x---x---x---x---x---|
T|--------------------------------|--------------------------------|
S|--------x---------------x-------|--------x---------------x-------|
B|0---------------0---0-----------|0---------------0---0-----------| 
                                                                    
C|--------------------------------|--------------------------------|
H|x---x---x---x---x---x---x---x---|x---x---x---x---x---x---x---x---|
T|--------------------------------|--------------------------------|
S|--------x---------------x-------|--------x---------------x-------|
B|0---------------0---0-----------|0---------------0---0-----------|
                                                                    
C|--------------------------------|--------------------------------|
H|x---x---x---x---x---x---x---x---|x---x---x---x---x---x---x---x---|
T|--------------------------------|--------------------------------|
S|--------x---------------x-------|--------x---------------x-------|
B|0---------------0---0-----------|0---------------0---0-----------|
                                                                     
C|--------------------------------|--------------------------------|
H|x---x---x---x---x---x---x---x---|x---x---x---x---x---x---x---o---|
T|--------------------------------|--------------------------------|
S|--------x---------------x-------|--------x---------------x-------|
B|0---------------0---0-----------|0---------------0---0-----------|
 
[Pre-Chorus]                                                       
C|--------------------------------|--------------------------------|
H|x---x---x---x---x---x---x---x---|x---x---x---x---x---x---x---x---|
T|--------------------------------|--------------------------------|
S|x-------x-------x-------x-------|x-------x-------x-------x-------|
B|0---0-----------0---0-----------|0---0-----------0---0-----------|
                                                                     
C|--------------------------------|--------------------------------|
H|x---x---x---x---x---x---x---x---|x---x---x---x---x---x---x---o---|
T|--------------------------------|--------------------------------|
S|x-------x-------x-------x-------|x-------x-------x-------x-------|
B|0---0-----------0---0-----------|0---0-----------0---0-----------| 
                                                                    
C|--------------------------------|--------------------------------|
H|x---x---x---x---x---x---x---x---|x---x---x---x---x---x---x---x---|
T|--------------------------------|--------------------------------|
S|x-------x-------x-------x-------|x-------x-------x-------x-------|
B|0---0-----------0---0-----------|0---0-----------0---0-----------|
                                                                     
C|--------------------------------|--------------------------------|
H|x---x---x---x---x---x---x---x---|x---x---x---x---x---x---x---o---|
T|--------------------------------|--------------------------------|
S|x-------x-------x-------x-------|x-------x-------x-------x-------|
B|0---0-----------0---0-----------|0---0-----------0---0-----------|
 
[Verse]                                                            
C|--------------------------------|--------------------------------|
H|x---x---x---x---x---x---x---x---|x---x---x---x---x---x---x---x---|
T|--------------------------------|--------------------------------|
S|--------x---------------x-------|--------x---------------x-------|
B|0---------------0---0-----------|0---------------0---0-----------|
                                                                     
C|--------------------------------|--------------------------------|
H|x---x---x---x---x---x---x---x---|x---x---x---x---x---x---x---x---|
T|--------------------------------|--------------------------------|
S|--------x---------------x-------|--------x---------------x-------|
B|0---------------0---0-----------|0---------------0---0-----------|
                                                                     
C|--------------------------------|--------------------------------|
H|x---x---x---x---x---x---x---x---|x---x---x---x---x---x---x---x---|
T|--------------------------------|--------------------------------|
S|--------x---------------x-------|--------x---------------x-------|
B|0---------------0---0-----------|0---------------0---0-----------| 
                                                                    
C|--------------------------------|--------------------------------|
H|x---x---x---x---x---x---x---x---|x---x---x---x---x---x---x---o---|
T|--------------------------------|--------------------------------|
S|--------x---------------x-------|--------x---------------x-------|
B|0---------------0---0-----------|0---------------0---0-----------|
 
[Pre-Chorus]                                                       
C|--------------------------------|--------------------------------|
H|x---x---x---x---x---x---x---x---|x---x---x---x---x---x---x---x---|
T|--------------------------------|--------------------------------|
S|x-------x-------x-------x-------|x-------x-------x-------x-------|
B|0---0-----------0---0-----------|0---0-----------0---0-----------|
                                                                    
C|--------------------------------|--------------------------------|
H|x---x---x---x---x---x---x---x---|x---x---x---x---x---x---x---o---|
T|--------------------------------|--------------------------------|
S|x-------x-------x-------x-------|x-------x-------x-------x-------|
B|0---0-----------0---0-----------|0---0-----------0---0-----------| 
                                                                    
C|--------------------------------|--------------------------------|
H|x---x---x---x---x---x---x---x---|x---x---x---x---x---x---x---x---|
T|--------------------------------|--------------------------------|
S|x-------x-------x-------x-------|x-------x-------x-------x-------|
B|0---0-----------0---0-----------|0---0-----------0---0-----------| 
                                                                    
C|--------------------------------|--------------------------------|
H|x---x---x---x---x---x---x---x---|x---x---x---x---x---x---x---o---|
T|--------------------------------|--------------------------------|
S|x-------x-------x-------x-------|x-------x-------x-------x-------|
B|0---0-----------0---0-----------|0---0-----------0---0-----------|
 
[Chorus]                                                           
C|--------------------------------|--------------------------------|
H|x---x---x---x---x---x---x---x---|x---x---x---x---x---x---x---x---|
T|--------------------------------|--------------------------------|
S|x-------x-------x-------x-------|x-------x-------x-------x-------|
B|0---------------0---0-----------|0---------------0---0-----------| 
                                                                    
C|--------------------------------|--------------------------------|
H|x---x---x---x---x---x---x---x---|x---x---x---x---x---x---x---x---|
T|--------------------------------|--------------------------------|
S|x-------x-------x-------x-------|x-------x-------x-------x-------|
B|0---------------0---0-----------|0---------------0---0-----------|
                                                                    
C|--------------------------------|--------------------------------|
H|x---x---x---x---x---x---x---x---|x---x---x---x---x---x---x---o---|
T|--------------------------------|--------------------------------|
S|x-------x-------x-------x-------|x-------x-------x-------x-------|
B|0---------------0---0-----------|0---------------0---0-----------|
 
[Interlude]                                                        
C|--------------------------------|--------------------------------|
H|x---x---x---x---x---x---x---x---|x---x---x---x---x---x---x---x---|
T|--------------------------------|----------------------------x---|
S|x-------x-------x-------x-------|x-------x-------x-------x-------|
B|0---0-----------0---0-----------|0---0-----------0---0-----------|
                                                                    
C|--------------------------------|--------------------------------|
H|x---x---x---x---x---x---x---x---|x---x---x---x---x---x---x---x---|
T|--------------------------------|--------------------------------|
S|--------x---------------x-------|--------x---------------x-------|
B|0---------------0---0-----------|0---------------0---0-----------|
                                                                     
C|--------------------------------|--------------------------------|
H|x---x---x---x---x---x---x---x---|x---x---x---x---x---x---x---x---|
T|--------------------------------|----------------------------x---|
S|--------x---------------x-------|--------x---------------x-------|
B|0---------------0---0-----------|0---------------0---0-----------|
 
[Bridge]                                                           
C|--------------------------------|--------------------------------|
H|x---x---x---x---x---x---x---x---|x---x---x---x---x---x---x---x---|
T|--------------------------------|--------------------------------|
S|--------x---------------x-------|--------x---------------x-------|
B|0---------------0---0-----------|0---------------0---0-----------|
 
[Verse]                                                             
C|--------------------------------|--------------------------------|
H|x---x---x---x---x---x---x---x---|x---x---x---x---x---x---x---o---|
T|--------------------------------|--------------------------------|
S|x-------x-------x-------x-------|x-------x-------x-------x-------|
B|0---------------0---0-----------|0---0-----------0---0-----------|
                                                                     
C|--------------------------------|--------------------------------|
H|x---x---x---x---x---x---x---x---|x---x---x---x---x---x---x---x---|
T|--------------------------------|--------------------------------|
S|--------x---------------x-------|--------x---------------x-------|
B|0---------------0---0-----------|0---------------0---0-----------|
                                                                     
C|--------------------------------|--------------------------------|
H|x---x---x---x---x---x---x---x---|x---x---x---x---x---x---x---x---|
T|--------------------------------|--------------------------------|
S|--------x---------------x-------|--------x---------------x-------|
B|0---------------0---0-----------|0---------------0---0-----------|
                                                                     
C|--------------------------------|--------------------------------|
H|x---x---x---x---x---x---x---x---|x---x---x---x---x---x---x---x---|
T|--------------------------------|--------------------------------|
S|--------x---------------x-------|--------x---------------x-------|
B|0---------------0---0-----------|0---------------0---0-----------|
 
[Pre-Chorus]                                                       
C|--------------------------------|--------------------------------|
H|x---x---x---x---x---x---x---x---|x---x---x---x---x---x---x---o---|
T|--------------------------------|--------------------------------|
S|--------x---------------x-------|--------x---------------x-------|
B|0---------------0---0-----------|0---------------0---0-----------| 
                                                                    
C|--------------------------------|--------------------------------|
H|x---x---x---x---x---x---x---x---|x---x---x---x---x---x---x---x---|
T|--------------------------------|--------------------------------|
S|x-------x-------x-------x-------|x-------x-------x-------x-------|
B|0---0-----------0---0-----------|0---0-----------0---0-----------|
                                                                     
C|--------------------------------|--------------------------------|
H|x---x---x---x---x---x---x---x---|x---x---x---x---x---x---x---o---|
T|--------------------------------|--------------------------------|
S|x-------x-------x-------x-------|x-------x-------x-------x-------|
B|0---0-----------0---0-----------|0---0-----------0---0-----------|
                                                                    
C|--------------------------------|--------------------------------|
H|x---x---x---x---x---x---x---x---|x---x---x---x---x---x---x---x---|
T|--------------------------------|--------------------------------|
S|x-------x-------x-------x-------|x-------x-------x-------x-------|
B|0---0-----------0---0-----------|0---0-----------0---0-----------|
 
[Chorus]                                                           
C|--------------------------------|--------------------------------|
H|x---x---x---x---x---x---x---x---|x---x---x---x---x---x---x---x---|
T|--------------------------------|----------------------------x---|
S|x-------x-------x-------x-------|x-------x-------x-------x-------|
B|0---0-----------0---0-----------|0---0-----------0---0-----------|
                                                                     
C|--------------------------------|--------------------------------|
H|x---x---x---x---x---x---x---x---|x---x---x---x---x---x---x---x---|
T|--------------------------------|--------------------------------|
S|x-------x-------x-------x-------|x-------x-------x-------x-------|
B|0---------------0---0-----------|0---------------0---0-----------|
                                                                     
C|--------------------------------|--------------------------------|
H|x---x---x---x---x---x---x---x---|x---x---x---x---x---x---x---x---|
T|--------------------------------|--------------------------------|
S|x-------x-------x-------x-------|x-------x-------x-------x-------|
B|0---------------0---0-----------|0---------------0---0-----------|
                                                                     
C|--------------------------------|--------------------------------|
H|x---x---x---x---x---x---x---x---|x---x---x---x---x---x---x---o---|
T|--------------------------------|--------------------------------|
S|x-------x-------x-------x-------|x-------x-------x-------x-------|
B|0---------------0---0-----------|0---------------0---0-----------|
 
[Outro]                                                            
C|--------------------------------|--------------------------------|
H|x---x---x---x---x---x---x---x---|x---x---x---x---x---x---x---o---|
T|--------------------------------|--------------------------------|
S|x-------x-------x-------x-------|x-------x-------x-------x-------|
B|0---0-----------0---0-----------|0---0-----------0---0-----------|
                                                                    
C|--------------------------------|--------------------------------|
H|x---x---x---x---x---x---x---x---|x---x---x---x---x---x---x---x---|
T|--------------------------------|--------------------------------|
S|x-------x-------x-------x-------|x-------x-------x-------x-------|
B|0---------------0---0-----------|0---------------0---0-----------|
                                                                     
C|--------------------------------|--------------------------------|
H|x---x---x---x---x---x---x---x---|x---x---x---x---x---x---x---x---|
T|--------------------------------|--------------------------------|
S|x-------x-------x-------x-------|x-------x-------x-------x-------|
B|0---------------0---0-----------|0---------------0---0-----------| 
                                                                    
C|--------------------------------|--------------------------------|
H|x---x---x---x---x---x---x---x---|x---x---x---x---x---x---x---o---|
T|--------------------------------|--------------------------------|
S|x-------x-------x-------x-------|x-------x-------x-------x-------|
B|0---------------0---0-----------|0---------------0---0-----------|
                                                                     
C|--------------------------------|--------------------------------|
H|x---x---x---x---x---x---x---o---|x---x---x---x---o---------------|
T|--------------------------------|--------------------x-------x---|
S|x-------x-------x-------x-------|x-------x-------x-------x-------|
B|0---0-----------0---0-----------|0---0-----------0---0-----0-----|
                                                                     
C|X-------------------------------|--------------------------------|
H|----x---x---o---x---x---x---x-x-|o---x---x---x---x---x---o-------|
T|--------------------------------|----------------------------x-x-|
S|x-------x-------x-------x---x---|x-------x---x---x-------x-x-----|
B|0---0-----------0---0-----------|0---0-----------0---0-0---------|
                                                                    
C|X-------------------------------|
H|--------------------------------|
T|--------------------------------|
S|--------------------------------|
B|0-------------------------------|


************************************

| x  Dead note

************************************

            
            
Suggest correction
Creating personal tab
Creating personal tab
You can edit any tab online and save it as your Personal.

You can edit, replace or remove any tab part or add personal notes – all changes will be seen only by you.

Personal tabs can be accessed anytime from any device, even offline.
Learn more »
Give kudos to tab author, rate the tab!
1 2 3 4 5
comments
print report bad tab
guest
You may want to rate the tab now too:
select rating
Wanna post a correction for this tab? Suggest correction