Oops, an error
Loading. Please wait.

Count Every Star Bass Tab

25 views 6 this week
no commentswrite comment
1 2 3 4 5
3 more votes to show rating
add to favorites
launch autoscroll
font size
0
reset
guitar tuner
Autoscroll
slow
fast
+/-
esc
set tempo
stop
Help us to improve Ultimate-Guitar.com Take our survey!
×
Author
Difficulty
[Intro]
G|----------------------------------------|
D|-5---9-----7---7-----5---9-----7---7----|
A|-------7---------5---------7---------5--|
E|----------------------------------------|


[Verse 1]: "Count every star in the midnight sky..."
G|------------------------------------------------------------------|
D|-5-------7-------5-------7-------5---5-------3--4--5-------7------|
A|-----7-------5-------7-------5-----------3-------------7-------5--|
E|------------------------------------------------------------------|


[Verse 2]: "Count every leaf on a willow tree..."
G|-------------------------------------------------------------------|
D|-5-------7-------5-------7-------12---5---10---10---5-------7------|
A|-----7-------5-------7-------5--------------------------7-------5--|
E|-------------------------------------------------------------------|


[Verse 3]: ***Instrumental***
G|----------------------------------------------------------------------------------|
D|-5-------7-------5-------7-------12---5---10-------5-------7-------5-------7------|
A|-----7-------5-------7-------5-----------------8-------7-------5-------7-------5--|
E|----------------------------------------------------------------------------------|


[Verse 4]: ""Count every star in the midnight sky..."
G|--------------------------------------------------------------------|
D|-5--------7-------5--------7-------5---5-------3--4--5-------7------|
A|--------7-----5----------7-----5-----------3-------------7-------5--|
E|--------------------------------------------------------------------|


[Verse 5]: "Count every leaf on a willow tree..."
G|---------------------------------------------------------------------------------------------|
D|-5-------7-------5-------7-------12---5---10-------5-------7-------------------5-------7-----|
A|-----7-------5-------7-------5-----------------8-------7------------5--------------7-------5-|
E|---------------------------------------------------------------------------------------------|
Suggest correction
Give kudos to tab author, rate the tab!
1 2 3 4 5
comments
print report bad tab
guest
You may want to rate the tab now too:
select rating
Wanna post a correction for this tab? Suggest correction