Oops, an error
Loading. Please wait.

Year Of The Cat Tab

version 1
version 1

Solo

Whole song

Interactive

32,348 views 75 this week
3 commentsread comments
1 2 3 4 5
excellent!
x 26
add to favorites
launch autoscroll
font size
0
reset
how to read this tab
guitar tuner
Autoscroll
slow
fast
+/-
esc
set tempo
stop
Help us to improve Ultimate-Guitar.com Take our survey!
×
Author
Title: Year of the Cat
Artist: Al Stewart 
Album: Year of the Cat

Tabbed by: Mikhail Punjani (mikkyd@hotmail.com)

Tuning: Standard (E A D G B E)

Well i couldnt find the solo for year of the cat on the internet, so i decided to tab it
out myself. Its a 100% correct, so dont bother sending me correction, unless it has to do
with certain symbols which i could have added. Anyway here it is, have fun...

Guitar solo 1: Acoustic


E|--------5--7--7h8--7--5-----5h7------|-------5-----------------------||
B|--7--8-------------------8-------5---|-7--8-----8p7--8--7p5-----5----||
G|-------------------------------------|-----------------------7-----4-||
D|-------------------------------------|-------------------------------||
A|-------------------------------------|-------------------------------||
E|-------------------------------------|-------------------------------||


E|--7p5-7--5--------|-------------5------------------------------------||
B|------------8p7-8-|--7-5-5-7--8-------5\3----------------------------||
G|------------------|------------------------2-0-2-4-------------------||
D|------------------|---------------------------------2--4--5----------||
A|------------------|--------------------------------------------------||
E|------------------|--------------------------------------------------||

                Rake
E|------------|--7----10\12--10----------------------------------------||
B|-------8--5-|--7--------------12-10---10-12-10-----------------------||
G|-4--7-------|--7-------------------------------12--12----------------||
D|------------|--------------------------------------------------------||
A|------------|--------------------------------------------------------||
E|------------|--------------------------------------------------------||


E|-4--4--5--7--8------------------||
B|----------------5--5--7h8p7-----||
G|--------------------------------||
D|--------------------------------||
A|--------------------------------||
E|--------------------------------||


Solo 2: Electric guitar


E|--17-17-17--17-17-17--15-14-17-|-----------------|------10-12-14-----||
B|-------------------------------|--8-7-8-7-10-8-7-|--10-----------12--||
G|-------------------------------|-----------------|-------------------||
D|-------------------------------|-----------------|-------------------||
A|-------------------------------|-----------------|-------------------||
E|-------------------------------|-----------------|-------------------||

E|-------------------------------19---17-17-15--17\19--19-17-----------||
B|--14-15---15-14-12---16-17-19----------------------------------------||
G|---------------------------------------------------------------------||
D|---------------------------------------------------------------------||
A|---------------------------------------------------------------------||
E|---------------------------------------------------------------------||


If you have any questions or comments, e-mail me at mikkyd@hotmail.com
Suggest correction
comments
print report bad tab
3 comments total.
0 reply
florence007 70 wrote on September 26 2014, 05:59 am

Pretty much perfect! Thanks for tabbing it out :)

0 reply
josep26 10 wrote on May 29 2015, 08:40 pm

Well quite good indeed, and almost perfect, some corrections to the last part of the acoustic solo and electric guitar solo are required, i.m.o.
I'll submit a correction in following post.

0 reply
josep26 10 wrote on May 29 2015, 08:40 pm

Rake
E|------------|--7----10\12--10----------------------------4-4-4-------||
B|-------8--5-|--7---------------10----10------------------------------||
G|/4--7-------|--7------------------12-----12--(12)--------------------||
D|------------|--------------------------------------------------------||
A|------------|--------------------------------------------------------||
E|------------|--------------------------------------------------------||

E|-4--4--5--7--8------------------||
B|----------------5--5--7h8p7-----||
G|--------------------------------||
D|--------------------------------||
A|--------------------------------||
E|--------------------------------||

Solo 2: Electric guitar

E|--17-17-17--17-17-17--15-14-17-|---------------------|------10-12-14-----||
B|-------------------------------|----14b15r14---------|-/10-----------/12-||
G|-------------------------------|--14--------14-12-11-|-------------------||
D|-------------------------------|---------------------|-------------------||
A|-------------------------------|---------------------|-------------------||
E|-------------------------------|---------------------|-------------------||

E|-------------------------------19---17-17-15--17\19--19-17-----------||
B|--14-15---15-14-12---16-17-19----------------------------------------||
G|---------------------------------------------------------------------||
D|---------------------------------------------------------------------||
A|---------------------------------------------------------------------||
E|---------------------------------------------------------------------||

guest
You may want to rate the tab now too:
select rating
Wanna post a correction for this tab? Suggest correction