Oops, an error
Loading. Please wait.

Mountain Music tab

version 1
version 1

Whole song

  • Mine is the Complete tab along with intro and the ... Show more
  • Chords with solos and break and intro. other tab h... Show more
by Alabama
469 views 9 this week
no commentswrite comment
1 2 3 4 5
1 last vote to show rating
add to favorites
×
Save as Personal and add changes to this tab that will be seen only by you. Learn more ›
×
You can save this tab as Personal to edit and correct it or add notes. All changes will be seen only by you. Learn more »
launch autoscroll
font size
0
reset
how to read this tab
guitar tuner
edit
Autoscroll
slow
fast
+/-
esc
set tempo
stop
Author
Difficulty
About this tab version
Mine is the Complete tab along with intro and the coveted solo as opposed to just chords. Was this info helpful? Yes No
Tab By King Kenroy


4/4 time
   D/A
e|--2---|
b|--3---|
G|--2---|
D|--0---|
A|--0---|
E|--X---|


[Intro]

e|---------------------------------------------------------------------------|
B|---------------------------------------------------------------------------|
G|-------------------------------2-2------2-2---------2----------------------|  X2
D|-----2--2--4---2--2--2-----2/4------2/4---------2h4---4--------------------|
A|-----0--0--0---0--0--0-----------------------------------------------------|
E|---------------------------------------------------------------------------|

                     Then after that the little intro solo


e|---------------------------------------------------------------------------|
B|-------------------------------------------6b7---5~~----------5------------|
G|-----------2~~---------4b6br4---2~~------------------------4b6-br4---2---2-|
D|---2---4---------------------------------------------------------------4---|
A|---------------------------------------------------------------------------|
E|---------------------------------------------------------------------------|


This part is played with all chords and starts when Randy Owen Says Cajun

[Chorus 1]
Oh, play me some mountain music
like grandma and grandpa used to play
Then I'll float on down the river
         E           A
to a   Ca-jun   hidea-way.

[Verse 1]
 A                         D 
      Drift away like Tom     Sawyer
            A                 D 
Ride a raft   with ol' Huck    Finn
           A              D 
Take a nap   like Rip Van Winkle,
      G              E 
daze     dreamin' A----gain.

[Chorus 2]
     A                         D
Oh,     play me some mountain     music
     A                                    D 
like     grandma and grandpa used to play 
           A                         D 
Then I'll     float on down the riv----er
         Bm            E 
to a Ca-----jun hidea----way.




Now here is the guitar solo, This cant be found anywhere else online so I decided to Figure it out note by 
note myself.


e|----------------------------------------------------------------------------------------|
B|-------------------------------------------5---7--5~------------------------------------|
G|--------------------------------4-----2/5----5------------------------------------------|
D|-------------------2-----2-4/6----------------------------------------------------------|
A|--------2----2--4-----4-----------------------------------------------------------------|
E|--2--4-----4----------------------------------------------------------------------------|

e|----------------------------------------------------------------------------------------|
B|--12b14br12--10~----------10h12p10----12b14-12b14~~-------------------------------------|
G|-------------------9--11-----------11---------------------------------------------------|
D|----------------------------------------------------------------------------------------|
A|----------------------------------------------------------------------------------------|
E|----------------------------------------------------------------------------------------|

e|---12--------12-------------------------------------------------------------------------|
B|-------12pbr-----12pbr----10h12p10~-----------------10------12p10----10~~---------------|
G|----------------------------------------------9--11---------------11--------------------|
D|----------------------------------------------------------------------------------------|
A|----------------------------------------------------------------------------------------|
E|----------------------------------------------------------------------------------------|

e|----------------------------------------------------------------------------------------|
B|-12b14br12--10h12p10~~---12b14br12--10h12p10~~----------10------------------------------|
G|--------------------------------------------------9--11-----9b11br9-9h11b13br11--9~~----|
D|----------------------------------------------------------------------------------------|
A|----------------------------------------------------------------------------------------|
E|----------------------------------------------------------------------------------------|


e|----------------------------------------------------------------------------------------|
B|-------5----5---5-----------------------------------------------------------------------|
G|---4b6---6----6----br4p2----------------------------------------------------------------|
D|---------------------------4-4b6-6-6br4--2----------------------------------------------|
A|----------------------------------------------------------------------------------------|
E|--------------------------------------------2b4-4-4-4p0---------------------------------|

[Verse 2]
  A                 D
   Swim across the     river
               A              D  
Just to prove     that I'm a     man
               A             D
Spend the day     bein' lazy 
      G                  E
Just     bein' nature's     friend

[Verse 3]
 A                    D 
   Climb a long tall     hick'ry
               A                 D 
Bend it over,     skinnin' cats 
         A                             D 
Playin'     baseball with chert rocks 
        G                    E
Usin'     sawmill slabs for     bats

[Bridge]
Play some back-home come-on  music
that  comes from the heart 
Play something with lots of feelin'
                      Bm               E
'cause that's where      music has to     start.

[Chorus]
      A                        D
Oh,     play me some mountain     music
       A                                   D
like     grandma and grandpa used to play 
           A                        D
Then I'll     float on down the riv----er
         Bm           E
to a Ca-----jun hidea----waaaaaaaaaayy.



The Last part before the climax is

e|---------------------------------------------------------------------------|
B|---------------------------------------------------------------------------|
G|---------------------------------------------------------------------------|
D|----1--0------------1---0------------------1---0-------------1---0---------|
A|-----------3--1---------------3---1----------------3----1------------3--1--|
E|---------------------------------------------------------------------------|


    A               D
Oh play me mountain music.
    A               D  
Oh play me mountain music.
    A               D
Oh play me mountain music.
      G           E  
Oh plaaaaaaaaaaayeyaaaayaa.

Then Repeat as Necessary


Listen to version for exact timing
************************************

| h   Hammer-on
| p   Pull-off
| b   Bend
| br  Bend release
| pb  Pre-bend
| pbr Pre-bend release
| /   Slide up
| \   Slide down
| ~   Vibrato

************************************
Suggest correction
Creating personal tab
Creating personal tab
You can edit any tab online and save it as your Personal.

You can edit, replace or remove any tab part or add personal notes – all changes will be seen only by you.

Personal tabs can be accessed anytime from any device, even offline.
Learn more »
Give kudos to tab author, rate the tab!
1 2 3 4 5
comments
print report bad tab
guest
You may want to rate the tab now too:
select rating
Wanna post a correction for this tab? Suggest correction