Oops, an error
Loading. Please wait.

Always Alright Tab

version 1
version 1

Whole song

  • Other versions only have the intro or chords, feel... Show more
340 views 60 this week
no commentswrite comment
1 2 3 4 5
2 more votes to show rating
add to favorites
launch autoscroll
font size
0
reset
how to read this tab
guitar tuner
Autoscroll
slow
fast
+/-
esc
set tempo
stop
Help us to improve Ultimate-Guitar.com Take our survey!
×
Author
Difficulty
intermediate
About this tab version
Other versions only have the intro or chords, feel free to update anything that needs corrections. Was this info helpful? Yes No
Artist: Alabama Shakes
Song: Always Alright
Album: The Silver Linings Playbook Soundtrack
Tuning: Standard

INTRO
Guitar 1
e|----------------------------------|-------------------------------------|
B|----------------------------------|-------------------------------------|
G|----------------------------------|-------------------------------------|
D|----------------------------------|-------------------------------------|
A|--2--2-2--2--2-2--2--2-2--2--2-2--|--2--2-2--2---2-2--2--2-2--2h4-4-4---|
E|--0--0-0--4--4-4--0--0-0--4--4-4--|--0--0-0--0h4-4-4--0--0-0--0---0-0---|

e|----------------------------------|-------------------------------------|
B|----------------------------------|-------------------------------------|
G|----------------------------------|-------------------------------------|
D|--2--2-2--2--2-2--2--2-2--2--2-2--|--2--2-2--2---2-2--2--2-2--2h4-4-4---|
A|--0--0-0--4--4-4--0--0-0--4--4-4--|--0--0-0--0h4-4-4--0--0-0--0---0-0---|
E|----------------------------------|-------------------------------------| x4

Guitar 2 3rd and 4th time through only
e|-x---------|--5-----5--|----------------------|--5-----5------------|
B|-x---------|--5-----7--|----------------------|--5-----7------------|
G|-x--9------|--6-----6--|--9----------11\9--9--|--6-----6------------|
D|-x--9------|--7-----7--|--9-----9h11----------|--7-----7------------|
A|-x--9h11---|-----------|--9h11----------------|---------------------|
E|-x--0------|-----------|--0-------------------|---------------------| x2

VERSE 1
Guitar 1
e|----------------------------------|-------------------------------------|
B|----------------------------------|-------------------------------------|
G|----------------------------------|-------------------------------------|
D|----------------------------------|-------------------------------------|
A|--2--2-2--2--2-2--2--2-2--2--2-2--|--2--2-2--2---2-2--2--2-2--2h4-4-4---|
E|--0--0-0--4--4-4--0--0-0--4--4-4--|--0--0-0--0h4-4-4--0--0-0--0---0-0---|

e|----------------------------------|-------------------------------------|
B|----------------------------------|-------------------------------------|
G|----------------------------------|-------------------------------------|
D|--2--2-2--2--2-2--2--2-2--2--2-2--|--2--2-2--2---2-2--2--2-2--2h4-4-4---|
A|--0--0-0--4--4-4--0--0-0--4--4-4--|--0--0-0--0h4-4-4--0--0-0--0---0-0---|
E|----------------------------------|-------------------------------------| x4

Guitar 2
e|-------------------------------------|--------------------------------------|
B|-9--9-----9--9-----9--9-----9--9-----|--5--5-----5--5-----5--5-----5--------|
G|-------9--------9--------9--------9--|--------6--------6--------6-----6--6--|
D|-------------------------------------|--------------------------------------|
A|-------------------------------------|--------------------------------------|
E|-------------------------------------|--------------------------------------|
Well you come upstairs But not to talk You stay a little while And you do a little walk on home
I hear you downstairs smokin' cigarettes I hear you talking shit Cause you ain't got nothin' talk about at all
So you took me to the party You got me alone Said you wanna feel good Cause you feel like you're gonna explode
Well, I don't care Can't pay attention And I don't give a damn about your intentions at all

CHORUS
Guitar 1
e|--0-------------------------------------|--0---------------------------------|
B|--0-------------------------------------|--2---------------------------------|
G|--1-------------------------------------|--2---------------------------------|
D|--2-------------------------------------|--2---------------------------------|
A|--2-------------------------------------|--0---------------------------------|
E|--0-------------------------------------|--0---------------------------------|

Guitar 2
e|--12---12----------------------------------|------5-----------------------------|
B|--12-------12------12----------------------|---------5--------------------------|
G|--11b----------11------11--9------9h11--9--|--4b--------4r-------------2/4--2---|
D|------------------------------11-----------|------------------------2--4/6--4---|
A|-------------------------------------------|----------------0h2--4--------------|
E|-------------------------------------------|------------------------------------|
Ooo oo ee ooo

VERSE 2
Guitar 1
e|----------------------------------|-------------------------------------|
B|----------------------------------|-------------------------------------|
G|----------------------------------|-------------------------------------|
D|----------------------------------|-------------------------------------|
A|--2--2-2--2--2-2--2--2-2--2--2-2--|--2--2-2--2---2-2--2--2-2--2h4-4-4---|
E|--0--0-0--4--4-4--0--0-0--4--4-4--|--0--0-0--0h4-4-4--0--0-0--0---0-0---|

e|----------------------------------|-------------------------------------|
B|----------------------------------|-------------------------------------|
G|----------------------------------|-------------------------------------|
D|--2--2-2--2--2-2--2--2-2--2--2-2--|--2--2-2--2---2-2--2--2-2--2h4-4-4---|
A|--0--0-0--4--4-4--0--0-0--4--4-4--|--0--0-0--0h4-4-4--0--0-0--0---0-0---|
E|----------------------------------|-------------------------------------| x4

Guitar 2
e|-------------------------------------|--------------------------------------|
B|-9--9-----9--9-----9--9-----9--9-----|--5--5-----5--5-----5--5-----5--------|
G|-------9--------9--------9--------9--|--------6--------6--------6-----6--6--|
D|-------------------------------------|--------------------------------------|
A|-------------------------------------|--------------------------------------|
E|-------------------------------------|--------------------------------------|
Well pass me the whiskey, pass me the gin Pass whatever there's drank left in
Well I don't care if it's seven in the morning For all I care it could be the 2nd coming
Well you say you can't take it anymore You can't live like this It's a really big deal
Well I don't care I can't pay attention And I don't give a fuck about your intentions at all

CHORUS
Guitar 1
e|--0-------------------------------------|--0---------------------------------|
B|--0-------------------------------------|--2---------------------------------|
G|--1-------------------------------------|--2---------------------------------|
D|--2-------------------------------------|--2---------------------------------|
A|--2-------------------------------------|--0---------------------------------|
E|--0-------------------------------------|--0---------------------------------|

Guitar 2
e|--12---12----------------------------------|------5-----------------------------|
B|--12-------12------12----------------------|---------5--------------------------|
G|--11b----------11------11--9------9h11--9--|--4b--------4r-------------2/4--2---|
D|------------------------------11-----------|------------------------2--4/6--4---|
A|-------------------------------------------|----------------0h2--4--------------|
E|-------------------------------------------|------------------------------------|
Ooo oo ee ooo

BRIDGE
Guitar 1
e|--0-----|-------0--0--0--x--0--0--0--|
B|--0-----|-------2--2--2--x--2--2--2--|
G|--1-----|-------2--2--2--x--2--2--2--|
D|--2-----|-------2--2--2--x--2--2--2--|
A|--2-----|-------0--0--0--x--0--0--0--|
E|--0-----|-------0--0--0--x--0--0--0--| x2

Guitar 2
e|-------|-xxx--5--5--5--x--5--5--5--|---------------------|-xxx-5--5--5-x-5--5--5-|
B|-------|-xxx--5--5--5--x--5--5--5--|---------------------|-xxx-5--5--5-x-5--5--5-|
G|-9-----|-xxx--6--6--6--x--6--6--6--|-9----------11\9--9--|-xxx-6--6--6-x-6--6--6-|
D|-9-----|-xxx--7--7--7--x--7--7--7--|-9-----9h11----------|-xxx-7--7--7-x-7--7--7-|
A|-9h11--|-xxx-----------------------|-9h11----------------|-xxx-------------------|
E|-0-----|-xxx-----------------------|-0-------------------|-xxx-------------------| x2

Guitar 1
e|--------------------------------|    |-------5--5-------------5--5--|
B|--------------------------------|    |-------5--5-------------5--5--|
G|------1--1----------------1--1--|    |--5h6--6--6--6--6--5h6--6--6--|
D|-0h2--------2--2--0h2-----------|    |------------------------------|
A|-0h2--------2--2--0h2--2--------|    |------------------------------|
E|--------------------------------| x2 |------------------------------| x2
                                                        ||||||||||||||    ||||||||||||||||
e|--5/7--7--7--5--5--5/7--7--7--7--|    |-9-----------------12--------------|
B|--7/9--9--9--7--7--7/9--9--9--9--|    |-10----------------14--------------|
G|---------------------------------|    |-9-----------------14--------------|
D|---------------------------------|    |-----------------------------------|
A|---------------------------------|    |-----------------------------------|
E|---------------------------------| x2 |-----------------------------------|

CHORUS
Guitar 1
e|--0-------------------------------------|--0---------------------------------|
B|--0-------------------------------------|--2---------------------------------|
G|--1-------------------------------------|--2---------------------------------|
D|--2-------------------------------------|--2---------------------------------|
A|--2-------------------------------------|--0---------------------------------|
E|--0-------------------------------------|--0---------------------------------| x4

Guitar 2
e|--12---12----------------------------------|------5-----------------------------|
B|--12-------12------12----------------------|---------5--------------------------|
G|--11b----------11------11--9------9h11--9--|--4b--------4r-------------2/4--2---|
D|------------------------------11-----------|------------------------2--4/6--4---|
A|-------------------------------------------|----------------0h2--4--------------|
E|-------------------------------------------|------------------------------------| x4
Ooo oo ee ooo  Well alright We're always alright We're alright We're always alright
We're alright We're always alright alright Ready alright

OUTRO  
Guitar 1
e|--0-------------------------------------|--0---------------------------------|
B|--0-------------------------------------|--2---------------------------------|
G|--1-------------------------------------|--2---------------------------------|
D|--2-------------------------------------|--2---------------------------------|
A|--2-------------------------------------|--0---------------------------------|
E|--0-------------------------------------|--0---------------------------------| x2

Guitar 2
      ||||||||||||||         ||||||||||||||
e|-------------------------------------------------------------------------------------------|
B|-/14---------------------/14----------------14----12----10----12----14----12----10----12---|
G|-/13---------------------/13----------------13----11-----9----11----13----11-----9----11---|
D|-------------------------------------------------------------------------------------------|
A|-------------------------------------------------------------------------------------------|
E|-------------------------------------------------------------------------------------------| x2

Guitar 1
e|--0-------------------------------------|
B|--0-------------------------------------|
G|--1-------------------------------------|
D|--2-------------------------------------|
A|--2-------------------------------------|
E|--0-------------------------------------|

Guitar 2
e|---------------------------------|
B|---------------------------------|
G|-------------11\9--9-------------|
D|--------9h11---------------------|
A|--9h11---------------------------|
E|--0-------------------0~~~~~~~~--|
Suggest correction
Give kudos to tab author, rate the tab!
1 2 3 4 5
comments
print report bad tab
guest
You may want to rate the tab now too:
select rating
Wanna post a correction for this tab? Suggest correction