Oops, an error
Loading. Please wait.

Hold On Tab

version 2
version 2

Whole song

11,622 views 12 this week
no commentswrite comment
1 2 3 4 5
worth learning
x 6
add to favorites
launch autoscroll
font size
0
reset
how to read this tab
guitar tuner
Autoscroll
slow
fast
+/-
esc
set tempo
stop
Help us to improve Ultimate-Guitar.com Take our survey!
×
-------------------------------------------------------------------------------
                                                   Hold On - Alabama Shakes
-------------------------------------------------------------------------------
Tabbed by: AlxVanWyngarden

Tuning: Standard

It's a very simple song.

Verse

e|----------------------------------|
B|----------------------------------|
G|----------------------------------|
D|----3-----------------------------|
A|-0-----0--3--0------0--3--3--(0)--|
E|-----------------5----------------|

Chorus


e|---------------------------------------------------------------|
B|------1------1----------1------1----------1------1------3-3h5--|
G|-0h2----0h2----0h2-0h2----0h2----0h2-0h2----0h2---------5-5----|
D|---------------------------------------------------------------|
A|---------------------------------------------------------------|
E|---------------------------------------------------------------|

e|---------------------------------------------------------------------|
B|------1------1----------1------1----------1------1-------3h5--3--1---|
G|-0h2----0h2----0h2-0h2----0h2----0h2-0h2----0h2----------5----5--2---|
D|---------------------------------------------------------------------|
A|---------------------------------------------------------------------|
E|---------------------------------------------------------------------|


e|---------------------------------------------------------------|
B|------1------1----------1------1----------1------1------3-3h5--|
G|-0h2----0h2----0h2-0h2----0h2----0h2-0h2----0h2---------5-5----|
D|---------------------------------------------------------------|
A|---------------------------------------------------------------|
E|---------------------------------------------------------------|

e|-----3-------------------8---8---8--7--------------------------------------|
B|-3b5----5rb3-----3b5----10--10--10--8--------------------------------------|
G|--------------5--5---------------------------------------------------------|
D|---------------------------------------------------------------------------|
A|---------------------------------------------------------------------------|
E|---------------------------------------------------------------------------|

Bridge (figure out the rhythm, not that tricky)

    C    F
e|--0----1--------3-------------------8---8---8--7-----------------------------|
B|--1----1----3b5----5rb3-----3b5----10--10--10--8-----------------------------|
G|--0----2-----------------5--5------------------------------------------------|
D|--2----3---------------------------------------------------------------------|
A|--3----3---------------------------------------------------------------------|
E|--0----1---------------------------------------------------------------------|

************************************

| h   hammer-on
| p   pull-off
| b   Bend
| br  Bend release

************************************

My first contribution, hope you like it.
Suggest correction
comments
print report bad tab
guest
You may want to rate the tab now too:
select rating
Please do not post tabs as comments. Select "correction" instead!