Oops, an error
Loading. Please wait.

I Aint The Same Bass Tab

2,607 views 3 this week
no commentswrite comment
1 2 3 4 5
accurate
x 4
add to favorites
launch autoscroll
font size
0
reset
guitar tuner
Autoscroll
slow
fast
+/-
esc
set tempo
stop
Help us to improve Ultimate-Guitar.com Take our survey!
×
Contributor
Difficulty
intermediate
Ok, this is my first tab ever!

i know it's not perfect but you can figure out the little mistakes yourself :)


intro:
G:--------------------------------------|
D:--------------------------------------|
A:-11-9---------------------------------|
E:------7--77--77-----------------------|   x4

verse:
G:---------------------------------------|
D:--------6-9----------6-9---------------|
A:-7----7-----7------7------------6-9----|
E:-------------------------7----7-----7--|

G:----------------------------------------|
D:-------------6-9--------9-6-------------|
A:---6-9-7---7-----77----7-----------6-9--|
E:-7--------------------------7---7-----7-|

chorus:
G:--------------------------------------------------------------------------|
D:---------------13----13-11--13-11---------13-13--11-11--------------------|
A:--------------------------13-----13-------------------11------------------|
E:-7-9-10-11---11----11---------------11--11-----11-------------------------|

G:--------------------------------------------------------------------------|
D:------11-9---11-9---------------------------------------------------------|
A:----------11------11----------9s11-11---------------11-9------------------|
E:-9---9---------------9------9----------7---77-77--7------7---77-77--------|

verse:
G:---------------------------------------|
D:--------6-9----------6-9---------------|
A:-7----7-----7------7------------6-9----|
E:-------------------------7----7-----7--|

G:----------------------------------------|
D:-------------6-9--------9-6-------------|
A:---6-9-7---7-----77----7-----------6-9--|
E:-7--------------------------7---7-----7-|

chorus:
G:--------------------------------------------------------------------------|
D:---------------13----13-11--13-11---------13-13--11-11--------------------|
A:--------------------------13-----13-------------------11------------------|
E:-7-9-10-11---11----11---------------11--11-----11-------------------------|

G:--------------------------------------------------------------------------|
D:------11-9---11-9---------------------------------------------------------|
A:----------11------11----------9s11-11---------------11-9------------------|
E:-9---9---------------9------9----------7---77-77--7------7---77-77--------|

solo:
G:---------------------------------------------------|
D:---------------------------------------------------|
A:---------------------------------------------------|
E:-7-6-4--2-4--2-4--2-4-2-4-2---7--4-7--4-7--4-7-6-4-|

G:--------------------------------------|
D:--------------------------------------|
A:--------------------------------------|
E:-2-4--2-4-2-4-2-4-2---7--4-7-4-7------|

verse-- x1
chorus-- x1
what you played in the intro-- xa lot
comments
print report bad tab
I want to post or [tab]
guest
You may want to rate the tab now too:
select rating
Please do not post tabs as comments. Select "correction" instead!