Oops, an error
Loading. Please wait.

Negligence intro tab

649 views 1 this week
2 commentsread comments
1 2 3 4 5
3 more votes to show rating
add to favorites
×
Save as Personal and add changes to this tab that will be seen only by you. Learn more ›
×
You can save this tab as Personal to edit and correct it or add notes. All changes will be seen only by you. Learn more »
launch autoscroll
font size
0
reset
how to read this tab
guitar tuner
edit
Autoscroll
slow
fast
+/-
esc
set tempo
stop
Author
Artist: Alabama Thunderpussy
Song: 15 Minute Drive
Album: Constellation
Tabbed by: Mistahfranco

This is just one of their 2 soft songs on their album.  Fairly easy.  Acostic Guitar in
standard tuning.


-------------------------------------------|
-------------------------------------------|    repeat
-9------9-----9/7-7----9/-7--9p7-----------|    twice
-9-7h9-7---9---------9----7------9-7-9-7-7-|
-7---------9---------9----5----------7---7-|
-----------7---------7---------------7---7-|


-0------------------------------------------------------|
-0------------------------------------------------------|
-9----9-9-9-7-9-7-9-9-9/12-12-12-9---------9--9/12-12-9-|
-9-7-9-----------------------------12-12-12-12----------|
-7------------------------------------------------------|
-0------------------------------------------------------|

---------------------------|
---------------------------| repeat
---------9-----------------| twice
-12-12-12-12-12/9-9-9-7-7--|
-------------------------7-|
---------------------------|

second time
--------------------------------------------|
--------------------------------------------|
-9/12-12-9/12-12-12-12-14-12-14/17-17-17-16-|
--------------------------------------------|
--------------------------------------------|
--------------------------------------------|
The intro is all i could get right now.  I'll try to do the chords for the chorus when
i feel like it.  That's about it.  If you could help out with the chords, i would
appreciate it.  Mistahfranco

            
            
Suggest correction
Creating personal tab
Creating personal tab
You can edit any tab online and save it as your Personal.

You can edit, replace or remove any tab part or add personal notes – all changes will be seen only by you.

Personal tabs can be accessed anytime from any device, even offline.
Learn more »
Give kudos to tab author, rate the tab!
1 2 3 4 5
comments
print report bad tab
2 comments total.
0 reply
mistahfranco 40 Jun 23, 2002 08:00 PM

First off, i just wanted to say that this tab sucks a major fatty, and whoever did this...um...
wait a minute, this is my damn tab. Anyways, I just wanted to say that I finished the tab for the verse and it is under the band ATP, which is page #2 in the A section. Coolio?

0 reply
mistahfranco 40 Dec 18, 2012 01:04 PM

Correction....a very big correction. The song for this tab is entitled "15 minute drive" NOT "Negligence". After 10 years. Better late then never eh?

guest
You may want to rate the tab now too:
select rating
Wanna post a correction for this tab? Suggest correction