Oops, an error
Loading. Please wait.

Your Love Tab

version 1
version 1

Intro

by Alamid
44,531 views 54 this week
4 commentsread comments
1 2 3 4 5
x 4
add to favorites
launch autoscroll
font size
0
reset
how to read this tab
guitar tuner
Autoscroll
slow
fast
+/-
esc
set tempo
stop
Artist:ALAMID
Song:Your Love
tabbed by:Fritz Matthew P.Cuevas(Philippines)
E-mail:fmgirbaud@yahoo.com
 

[Intro]

e|-----------3---------------3------------------------3----------------------|
b|--------2--------------2------------3-----------3--------------------------|
g|-----2-------------2------------------3-----0------------------------------|
d|-----------------------------------------2---------------------------------|
a|--0------------2----------------3------------------------------------------|
E|---------------------------------------------------------------------------|


e|------------3---------------3------------------------3----0--------------|
b|---------2--------------2-----------3-----------3---------0--------------|
g|------2-------------2-----------------3-----0-------------1--------------|
d|-----------------------------------------2----------------2--------------|
a|--0-------------2----------------3------------------------2--------------|
E|----------------------------------------------------------0--------------|

e|-----3---5----3---------3-------------------------------------------------|
b|--3----------------3-----------------------3------------------------------|
g|---------------------------------------0------0---------------------------|
d|----------------------------------2---------------2-----------------------|
a|------------------------------3-------------------------------------------|
E|--------------------------------------------------------------------------|

e|-----------------------------------------------------------------------------|
b|-------------0-----------------------3-------------------0-------------------|
g|---------0------0----------------0-----0--------------0-----0----------------|
d|-----2-------------2--------2--------------2-------2-----------2-------------|
a|--3---------------------3----------------------3-----------------------------|
E|-----------------------------------------------------------------------------|

e|------------------------------------------3-------------------------|
b|------------------------------------------3-------------------------|
g|---0---4---2---0--------------------------0-------------------------|
d|-------------------0---4---3--0-----------0-------------------------|
a|---------------------------------3----2---2-------------------------|
E|------------------------------------------3-------------------------| 
Suggest correction
comments
print report bad tab
4 comments total. Showing first comments.
0 reply
belzadionelle 10 Apr 16, 2017 08:31 PM

👍

0 reply
belzadionelle 10 Apr 16, 2017 09:13 PM

👍

0 reply
belzadionelle 10 Apr 16, 2017 09:13 PM

👍

guest
Wanna post a correction for this tab? Suggest correction