Oops, an error
Loading. Please wait.

Your Love solo tab

version 4
version 4

Whole song

by Alamid
3,989 views 3 this week
2 commentsread comments
1 2 3 4 5
2 more votes to show rating
add to favorites
×
Save as Personal and add changes to this tab that will be seen only by you. Learn more ›
×
You can save this tab as Personal to edit and correct it or add notes. All changes will be seen only by you. Learn more »
launch autoscroll
font size
0
reset
how to read this tab
guitar tuner
edit
Autoscroll
slow
fast
+/-
esc
set tempo
stop
--------------------------------------------------
Tabbed By : GNITE
E.Mail : krayzie_orange@yahoo.com
--------------------------------------------------

   This is my first tab.. kasi hinanap ko lead ng
ng kantang to' walang available kaya ginawa ko lang.
Di to perfect pero medyo kapareho ng lead.. timing
nyo na lang..

==================================================

Legend:

   v - bend up
   ^ - pull off
   / - hammer off
   h - hammer
   s - slide

==================================================


e ------------------------------------------------|
B ------------------------------------------------|
G ------------------------------------------------|
D ------------------------------------------------|
A --------5--3s2s3--5--7--9--10--12---------------|
E --3--5------------------------------------------|

e ------------------------------------------------|
B --12s15--15-15--13h12---------------------------|
G ----------------------12------------------------|
D ------------------------------------------------|
A ------------------------------------------------|
E ------------------------------------------------|

e ------------------------------------------------|
B -----12S15--13h15--12h13--10h12--8--------------|
G --12--------------------------------------------|
D ------------------------------------------------|
A ------------------------------------------------|
E ------------------------------------------------|

e ----------------11/9^8s15-----------------------|
B --8h9/8-----------------------------------------|
G ---------8--10----------------------------------|
D ------------------------------------------------|
A ------------------------------------------------|
E ------------------------------------------------|

e --v17v17--15--17--17-17-15-17s19s-v21v21--15----|
B ------------------------------------------------|
G ------------------------------------------------|
D ------------------------------------------------|
A ------------------------------------------------|
E ------------------------------------------------|

e ------------------------------------------------|
B --13h15--12h13--10h12--10--8h7--9-7-8s10-10s12--|
G ------------------------------------------------|
D ------------------------------------------------|
A ------------------------------------------------|
E ------------------------------------------------|

e --10-10-10--------------------------------------|
B ------------v8----v10-10-^10-7h9--v8------------|
G ------------------------------------------------|
D ------------------------------------------------|
A ------------------------------------------------|
E ------------------------------------------------|


Please Rate...

   Thanks sa banda ko! kina Wedan - Vocals, Tata - Drums,
Imman - Lead, Ambong - Rhythm at ako Gnite - Bass. Kaya
inspirasyon ko.. Tnx din kay Kuya Bong and Ate Malou..
and for all kay GOD, kasi binigyan niya kami na ganitong
GIFT...


GETSHAMANE FOREVER!!!

            
            
Suggest correction
Creating personal tab
Creating personal tab
You can edit any tab online and save it as your Personal.

You can edit, replace or remove any tab part or add personal notes – all changes will be seen only by you.

Personal tabs can be accessed anytime from any device, even offline.
Learn more »
Give kudos to tab author, rate the tab!
1 2 3 4 5
comments
print report bad tab
2 comments total.
0 reply
shredpoodle 10 Nov 04, 2006 11:44 PM

boring

0 reply
wackyboy 40 Aug 15, 2008 10:23 AM

waaaaaaaaaaaaaaaaaaaaa....tsk tsk tsk... /e5

guest
Wanna post a correction for this tab? Suggest correction