Oops, an error
Loading. Please wait.

Black Cat John Brown intro tab

version 2
version 2

Intro

Whole song

4,513 views 6 this week
1 commentread comment
1 2 3 4 5
x 5
add to favorites
×
Save as Personal and add changes to this tab that will be seen only by you. Learn more ›
×
You can save this tab as Personal to edit and correct it or add notes. All changes will be seen only by you. Learn more »
launch autoscroll
font size
0
reset
how to read this tab
guitar tuner
edit
Autoscroll
slow
fast
+/-
esc
set tempo
stop
Difficulty
Black Cat John Brown

E ||----------------|--------------------------|-------------------------|
B ||----------------|--------------------------|-------------------------|
G ||----------------|--------------------------|-------------------------|
D ||----------------|-------0---------0--------|--0----------------------|
A ||-->5---3---1--|-|----------1---------1-----|---------->5---3---1-----|
E ||----------------|---3---------3---------3--|-------------------------|
     2x  


E ||----------------|---------------------------|--------|
B ||----------------|---------------------------|--------|
G ||----------------|-------0---------0---------|--0-----|
D ||----------------|----------1---------1------|--------|
A ||-->5---3---1----|-3-----------3---------3---|--------|
E ||----------------|---------------------------|--------|
      1x

E ||----------------|--------------------------|-------------------------|
B ||----------------|--------------------------|-------------------------|
G ||----------------|--------------------------|-------------------------|
D ||----------------|-------0---------0--------|--0----------------------|
A ||-->5---3---1--|-|----------1---------1-----|---------->5---3---1-----|
E ||----------------|---3---------3---------3--|-------------------------     1x  and back to the begin


Black cat John Brown, your time will come
Big yellow eyes, full moon is rising
Black cat John Brown, your time will come
Windows and fences, you'll take no risk

You catch the world, big open eyes
You catch some berries from trees that reach the sky
You'll get older, you can't catch time
You'll have a good life and then you'll die

Black cat John Brown, your time will come
Big yellow eyes, full moon is rising
Black cat John Brown, your time will come
Windows and fences, you'll take no risk

            
            
Suggest correction
Creating personal tab
Creating personal tab
You can edit any tab online and save it as your Personal.

You can edit, replace or remove any tab part or add personal notes – all changes will be seen only by you.

Personal tabs can be accessed anytime from any device, even offline.
Learn more »
comments
print report bad tab
1 comment total.
0 reply
larspetersen1991 10 Feb 07, 2016 10:07 AM

Great tab! But I was listening to a live perfomance where you can hear them playing this in the 4th part. Small adjustment to make it sound a little fancier.

E ||----------------|--------------------------|-------------------------|
B ||----------------|--------------------------|-------------------------|
G ||----------------|--------------------------|-------------------------|
D ||----------------|------- 0---------0--------|--0----------------------|
A ||-->5---3---1--|-|-----1-----1---------1-----|---------->5---3---1-----|
E ||----------------|---3---3------3---------3--|-------------------------


And I'm really looking for a tab or someone who can tell me what chords and riff variatons he is using late rin the song.

https://www.youtube.com/watch?v=zf7IjY2dJ4M

guest
Wanna post a correction for this tab? Suggest correction